PrimaNota.ru - самый крупный в мире бесплатный архив песенных текстов, аккордов, табулатур и нот


Blackfoot - Pay My Dues - таба, видео

Регистрация Запомнить меня
Войти через:  Facebook Google Twitter Vk Yandex Mail.ru

Blackfoot - Pay My Dues - таба, видео

Печатать
Просмотров: 155
-----------------------------------------------------------------------------
                             Pay My Dues- Blackfoot
                                 Strikes - 1979
                         Words and Music by Blues Image
-----------------------------------------------------------------------------
Tabbed by:Duane Baldwin
E-mail: duaneandjulie@gmail.com

Tuning: Drop D

Guitar I (Overdriven tone)

Intro Solo
e|-------------|-----------|----0----|---0----0----|----------------|
B|-------------|---0h1h2---|---------|---0----0----|--3-------------|
G|----18\9-----|-----------|---------|-------------|--2------2bp+---|
D|----18\9-----|-----------|---------|-------------|----------------|
A|----16\7-----|-----------|---------|-------------|----------------|
E|-------------|-----------|---------|-------------|----------------|

e|--------------------|
B|--------------------|
G|--2pbp+--2pbp+------|
D|-----------------2--|
A|--------------------|
E|--------------------|

1st Verse

Palm mute F#'s
e|------------------------|------------------------|------------------------|
B|------------------------|------------------------|------------------------|
G|------------------------|------------------------|------------------------|
D|---------------------2--|---------------------2--|---------------------2--|
A|--------4--5--0h2h4-----|--------4--5--0h2h4-----|--------4--5--0h2h4-----|
E|--2--2------------------|--2--2------------------|--2--2------------------|

e|------------------------|------------------------|------------------------|
B|------------------------|------------------------|------------------------|
G|------------------------|------------------------|------------------------|
D|---------------------2--|---------------------2--|---------------------2--|
A|--------4--5--0h2h4-----|--------4--5--0h2h4-----|--------4--5--0h2h4-----|
E|--2--2------------------|--2--2------------------|--2--2------------------|

e|------------------------------------|
B|------------------------------------|
G|-----------2b--2pbr--0--2--0--------|
D|------------------------------2--0--|
A|------------------------------------|
E|---2--------------------------------|

1st Pre chorus

e|---------------------|-------------------|---------------------|
B|---------------------|-------------------|---------------------|
G|---------------------|-------------------|---------------------|
D|---------------------|-------------------|---------------------|
A|--7---5---7---5---7--|--7---10---10---9--|--7---5---7---5---7--|
E|--7---5---7---5---7--|--7---10---10---9--|--7---5---7---5---7--|

e|-------------------|---------------------|-----------------|
B|-------------------|---------------------|-----------------|
G|-------------------|---------------------|-----------------|
D|-------------------|---------------------|-----------------|
A|--7---10---10---9--|--2---0---2---0---2--|--2---5---5---4--|
E|--7---10---10---9--|--2---0---2---0---2--|--2---5---5---4--|

e|---------------------|-----------------|
B|---------------------|-----------------|
G|---------------------|-----------------|
D|---------------------|-----------------|
A|--2---0---2---0---2--|--2---5---5---4--|
E|--2---0---2---0---2--|--2---5---5---4--|

1st Chorus

e|--------------------------|------------------|-------------------|
B|-----------10----10-------|----------10------|-------------------|
G|-----------8-----8--------|------8-----------|-------------------|
D|-----------9-----9--------|--9---------------|-------------------|
A|--9---9---------------9---|---------------9--|--------------14\--|
E|--9---9---------------9---|---------------9--|--------------14\--|


2nd solo


Palm mute F#'s
e|------------------------|------------------------|------------------------|
B|------------------------|------------------------|------------------------|
G|------------------------|------------------------|------------------------|
D|---------------------2--|---------------------2--|---------------------2--|
A|--------4--5--0h2h4-----|--------4--5--0h2h4-----|--------4--5--0h2h4-----|
E|--2--2------------------|--2--2------------------|--2--2------------------|

e|------------------------|
B|------------------------|
G|------------------------|
D|---------------------2--|
A|--------4--5--0h2h4-----|
E|--2--2------------------|

2nd Verse

e|------------------------|------------------------|------------------------|
B|------------------------|------------------------|------------------------|
G|------------------------|------------------------|------------------------|
D|---------------------2--|---------------------2--|---------------------2--|
A|--------4--5--0h2h4-----|--------4--5--0h2h4-----|--------4--5--0h2h4-----|
E|--2--2------------------|--2--2------------------|--2--2------------------|

e|------------------------|------------------------|------------------------|
B|------------------------|------------------------|------------------------|
G|------------------------|------------------------|------------------------|
D|---------------------2--|---------------------2--|---------------------2--|
A|--------4--5--0h2h4-----|--------4--5--0h2h4-----|--------4--5--0h2h4-----|
E|--2--2------------------|--2--2------------------|--2--2------------------|

e|------------------------------------|
B|------------------------------------|
G|-----------2b--2pbr--0--2--0--------|
D|------------------------------2--0--|
A|------------------------------------|
E|---2--------------------------------|

2nd Pre Chorus

e|---------------------|-------------------|---------------------|
B|---------------------|-------------------|---------------------|
G|---------------------|-------------------|---------------------|
D|---------------------|-------------------|---------------------|
A|--7---5---7---5---7--|--7---10---10---9--|--7---5---7---5---7--|
E|--7---5---7---5---7--|--7---10---10---9--|--7---5---7---5---7--|

e|-------------------|---------------------|-----------------|
B|-------------------|---------------------|-----------------|
G|-------------------|---------------------|-----------------|
D|-------------------|---------------------|-----------------|
A|--7---10---10---9--|--2---0---2---0---2--|--2---5---5---4--|
E|--7---10---10---9--|--2---0---2---0---2--|--2---5---5---4--|

e|---------------------|-----------------|
B|---------------------|-----------------|
G|---------------------|-----------------|
D|---------------------|-----------------|
A|--2---0---2---0---2--|--2---5---5---4--|
E|--2---0---2---0---2--|--2---5---5---4--|

2nd Chorus

e|--------------------------|--------------------|--------------------------|
B|-----------10----10-------|--------------------|-----------10----10-------|
G|-----------8-----8--------|------9br--7--9--7--|-----------8-----8--------|
D|-----------9-----9--------|--------------------|-----------9-----9--------|
A|--9---9---------------9---|--9-----------------|--9---9---------------9---|
E|--9---9---------------9---|--9-----------------|--9---9---------------9---|

e|--------------------|--------------------------|--------------------|
B|--------------------|-----------10----10-------|--------------------|
G|------9br--7--9--7--|-----------8-----8--------|------9br--7--9--7--|
D|--------------------|-----------9-----9--------|--------------------|
A|--9-----------------|--9---9---------------9---|--9-----------------|
E|--9-----------------|--9---9---------------9---|--9-----------------|

e|----0-----|--0----0----0---|-----0-----------------|
B|----0-----|--3----3----3---|-----0-----------------|
G|----1-----|--2----2----2---|-----1-----------------|
D|----2-----|--0----0----0---|-----2-----------------|
A|----2-----|----------------|-----2------------14\--|
E|----0-----|----------------|-----0------------14\--|

3rd Pre Chorus

e|---------------------|-----------------|---------------------|-------------|
B|---------------------|-----------------|---------------------|-------------|
G|---------------------|-----------------|---------------------|-------------|
D|---------------------|-----------------|---------------------|-------------|
A|--2---0---2---0---2--|--2---5---5---4--|--2---0---2---0---2--|--2---5---5--|
E|--2---0---2---0---2--|--2---5---5---4--|--2---0---2---0---2--|--2---5---5--|

Main Solo

e|---------------|---------|-----------------------------|-----------------|
B|---------------|---------|-----------------------------|------------8b---|
G|--7br--5--7b---|---------|--7br--5--7b--12t--7pbr--5---|--7brh--5--------|
D|---------------|---------|-----------------------------|-----------------|
A|---------------|---------|-----------------------------|-----------------|
E|---------------|---------|-----------------------------|-----------------|

e|---------------------------|---------------|---------------|
B|--8------------------------|---------------|---------------|
G|------5--------------------|--2b---0---2b--|--7t--2pbr--0--|
D|----------7--5--2p0--------|---------------|---------------|
A|---------------------3--0--|---------------|---------------|
E|---------------------------|---------------|---------------|

e|--------------------------------------------|-----------------------|
B|--3b--0h3p0---------------------------------|--15---12---15b~~~~~~--|
G|-------------2p0--2b--0h2p0h2---------------|-----------------------|
D|-------------------------------0h2p0h2------|-----------------------|
A|----------------------------------------2---|-----------------------|
E|--------------------------------------------|-----------------------|

3rd Chorus

e|--------------------------|--------------------|--------------------------|
B|-----------10----10-------|--------------------|-----------10----10-------|
G|-----------8-----8--------|------9br--7--9--7--|-----------8-----8--------|
D|-----------9-----9--------|--------------------|-----------9-----9--------|
A|--9---9---------------9---|--9-----------------|--9---9---------------9---|
E|--9---9---------------9---|--9-----------------|--9---9---------------9---|

e|--------------------|--------------------------|--------------------|
B|--------------------|-----------10----10-------|--------------------|
G|------9br--7--9--7--|-----------8-----8--------|------9br--7--9--7--|
D|--------------------|-----------9-----9--------|--------------------|
A|--9-----------------|--9---9---------------9---|--9-----------------|
E|--9-----------------|--9---9---------------9---|--9-----------------|

e|----0-----|--0----0----0---|-----0-----------------|
B|----0-----|--3----3----3---|-----0-----------------|
G|----1-----|--2----2----2---|-----1-----------------|
D|----2-----|--0----0----0---|-----2-----------------|
A|----2-----|----------------|-----2------------14\--|
E|----0-----|----------------|-----0------------14\--|

Outro

e|---------------------|-----------------|---------------------|
B|---------------------|-----------------|---------------------|
G|---------------------|-----------------|---------------------|
D|---------------------|-----------------|---------------------|
A|--2---0---2---0---2--|--2---5---5---4--|--2---0---2---0---2--|
E|--2---0---2---0---2--|--2---5---5---4--|--2---0---2---0---2--|

e|-----------------|---------------------|-----------------|
B|-----------------|---------------------|-----------------|
G|-----------------|---------------------|-----------------|
D|-----------------|---------------------|-----------------|
A|--2---5---5---4--|--2---0---2---0---2--|--2---5---5---4--|
E|--2---5---5---4--|--2---0---2---0---2--|--2---5---5---4--|

e|---------------------|-----------------|---------------------|
B|---------------------|-----------------|---------------------|
G|---------------------|-----------------|---------------------|
D|---------------------|-----------------|---------------------|
A|--2---0---2---0---2--|--2---5---5---4--|--2---0---2---0---2--|
E|--2---0---2---0---2--|--2---5---5---4--|--2---0---2---0---2--|

e|-----------------|---------------------|-----------------|
B|-----------------|---------------------|-----------------|
G|-----------------|---------------------|-----------------|
D|-----------------|---------------------|-----------------|
A|--2---5---5---4--|--2---0---2---0---2--|--2---5---5---4--|
E|--2---5---5---4--|--2---0---2---0---2--|--2---5---5---4--|

e|---------------------|-----------------|---------------------|
B|---------------------|-----------------|---------------------|
G|---------------------|-----------------|---------------------|
D|---------------------|-----------------|---------------------|
A|--2---0---2---0---2--|--2---5---5---4--|--2---0---2---0---2--|
E|--2---0---2---0---2--|--2---5---5---4--|--2---0---2---0---2--|

Fade out
e|-----------------|
B|-----------------|
G|-----------------|
D|-----------------|
A|--2---5---5---4--|
E|--2---5---5---4--|


Guitar II (overdriven tone)

Intro
 Palm mute all F#'s
e|---------|---------|------------------------|------------------------|
B|---------|---------|------------------------|------------------------|
G|---------|---------|------------------------|------------------------|
D|---------|---------|---------------------2--|---------------------2--|
A|---------|---------|--------4--5--0h2h4-----|--------4--5--0h2h4-----|
E|---------|---------|--2--2------------------|--2--2------------------|

e|------------------------|------------------------|
B|------------------------|------------------------|
G|------------------------|------------------------|
D|---------------------2--|---------------------2--|
A|--------4--5--0h2h4-----|--------4--5--0h2h4-----|
E|--2--2------------------|--2--2------------------|

1st Verse

Palm mute F#'s
e|------------------------|------------------------|------------------------|
B|------------------------|------------------------|------------------------|
G|------------------------|------------------------|------------------------|
D|---------------------2--|---------------------2--|---------------------2--|
A|--------4--5--0h2h4-----|--------4--5--0h2h4-----|--------4--5--0h2h4-----|
E|--2--2------------------|--2--2------------------|--2--2------------------|

e|------------------------|------------------------|------------------------|
B|------------------------|------------------------|------------------------|
G|------------------------|------------------------|------------------------|
D|---------------------2--|---------------------2--|---------------------2--|
A|--------4--5--0h2h4-----|--------4--5--0h2h4-----|--------4--5--0h2h4-----|
E|--2--2------------------|--2--2------------------|--2--2------------------|

e|------------------------------------|
B|------------------------------------|
G|-----------2b--2pbr--0--2--0--------|
D|------------------------------2--0--|
A|------------------------------------|
E|---2--------------------------------|

1st Pre chorus

e|---------------------|-------------------|---------------------|
B|---------------------|-------------------|---------------------|
G|---------------------|-------------------|---------------------|
D|---------------------|-------------------|---------------------|
A|--7---5---7---5---7--|--7---10---10---9--|--7---5---7---5---7--|
E|--7---5---7---5---7--|--7---10---10---9--|--7---5---7---5---7--|

e|-------------------|---------------------|-----------------|
B|-------------------|---------------------|-----------------|
G|-------------------|---------------------|-----------------|
D|-------------------|---------------------|-----------------|
A|--7---10---10---9--|--2---0---2---0---2--|--2---5---5---4--|
E|--7---10---10---9--|--2---0---2---0---2--|--2---5---5---4--|

e|---------------------|-----------------|
B|---------------------|-----------------|
G|---------------------|-----------------|
D|---------------------|-----------------|
A|--2---0---2---0---2--|--2---5---5---4--|
E|--2---0---2---0---2--|--2---5---5---4--|

1st Chorus

e|--------------------------|------------------|-------------------|
B|-----------10----10-------|----------10------|-------------------|
G|-----------8-----8--------|------8-----------|-------------------|
D|-----------9-----9--------|--9---------------|-------------------|
A|--9---9---------------9---|---------------9--|--------------14\--|
E|--9---9---------------9---|---------------9--|--------------14\--|

2nd solo

e|----------|---------------------------|-------------------|
B|----------|---------------------------|-------------------|
G|----4-----|--2bp+--0--2p+--0p+--2bp+--|--0-----------x/---|
D|----------|---------------------------|------2-------x/---|
A|----------|---------------------------|-------------------|
E|----------|---------------------------|-------------------|

2nd Verse

e|------------------------|------------------------|------------------------|
B|------------------------|------------------------|------------------------|
G|------------------------|------------------------|------------------------|
D|---------------------2--|---------------------2--|---------------------2--|
A|--------4--5--0h2h4-----|--------4--5--0h2h4-----|--------4--5--0h2h4-----|
E|--2--2------------------|--2--2------------------|--2--2------------------|

e|------------------------|------------------------|------------------------|
B|------------------------|------------------------|------------------------|
G|------------------------|------------------------|------------------------|
D|---------------------2--|---------------------2--|---------------------2--|
A|--------4--5--0h2h4-----|--------4--5--0h2h4-----|--------4--5--0h2h4-----|
E|--2--2------------------|--2--2------------------|--2--2------------------|

e|------------------------------------|
B|------------------------------------|
G|-----------2b--2pbr--0--2--0--------|
D|------------------------------2--0--|
A|------------------------------------|
E|---2--------------------------------|

2nd Pre Chorus

e|---------------------|-------------------|---------------------|
B|---------------------|-------------------|---------------------|
G|---------------------|-------------------|---------------------|
D|---------------------|-------------------|---------------------|
A|--7---5---7---5---7--|--7---10---10---9--|--7---5---7---5---7--|
E|--7---5---7---5---7--|--7---10---10---9--|--7---5---7---5---7--|

e|-------------------|---------------------|-----------------|
B|-------------------|---------------------|-----------------|
G|-------------------|---------------------|-----------------|
D|-------------------|---------------------|-----------------|
A|--7---10---10---9--|--2---0---2---0---2--|--2---5---5---4--|
E|--7---10---10---9--|--2---0---2---0---2--|--2---5---5---4--|

e|---------------------|-----------------|
B|---------------------|-----------------|
G|---------------------|-----------------|
D|---------------------|-----------------|
A|--2---0---2---0---2--|--2---5---5---4--|
E|--2---0---2---0---2--|--2---5---5---4--|

2nd Chorus

e|--------------------------|--------------------|--------------------------|
B|-----------10----10-------|--------------------|-----------10----10-------|
G|-----------8-----8--------|------9br--7--9--7--|-----------8-----8--------|
D|-----------9-----9--------|--------------------|-----------9-----9--------|
A|--9---9---------------9---|--9-----------------|--9---9---------------9---|
E|--9---9---------------9---|--9-----------------|--9---9---------------9---|

e|--------------------|--------------------------|--------------------|
B|--------------------|-----------10----10-------|--------------------|
G|------9br--7--9--7--|-----------8-----8--------|------9br--7--9--7--|
D|--------------------|-----------9-----9--------|--------------------|
A|--9-----------------|--9---9---------------9---|--9-----------------|
E|--9-----------------|--9---9---------------9---|--9-----------------|

e|----0-----|--0----0----0---|-----0-----------------|
B|----0-----|--3----3----3---|-----0-----------------|
G|----1-----|--2----2----2---|-----1-----------------|
D|----2-----|--0----0----0---|-----2-----------------|
A|----2-----|----------------|-----2------------14\--|
E|----0-----|----------------|-----0------------14\--|

3rd Pre Chorus

e|---------------------|-----------------|---------------------|
B|---------------------|-----------------|---------------------|
G|---------------------|-----------------|---------------------|
D|---------------------|-----------------|---------------------|
A|--2---0---2---0---2--|--2---5---5---4--|--2---0---2---0---2--|
E|--2---0---2---0---2--|--2---5---5---4--|--2---0---2---0---2--|

e|-----------------|
B|-----------------|
G|-----------------|
D|-----------------|
A|--2---5---5---4--|
E|--2---5---5---4--|

Main Solo

e|---------------------|-------------------|---------------------|
B|---------------------|-------------------|---------------------|
G|---------------------|-------------------|---------------------|
D|---------------------|-------------------|---------------------|
A|--7---5---7---5---7--|--7---10---10---9--|--7---5---7---5---7--|
E|--7---5---7---5---7--|--7---10---10---9--|--7---5---7---5---7--|

e|-------------------|---------------------|-----------------|
B|-------------------|---------------------|-----------------|
G|-------------------|---------------------|-----------------|
D|-------------------|---------------------|-----------------|
A|--7---10---10---9--|--2---0---2---0---2--|--2---5---5---4--|
E|--7---10---10---9--|--2---0---2---0---2--|--2---5---5---4--|

e|---------------------|-----------------|
B|---------------------|-----------------|
G|---------------------|-----------------|
D|---------------------|-----------------|
A|--2---0---2---0---2--|--2---5---5---4--|
E|--2---0---2---0---2--|--2---5---5---4--|

3rd Chorus

e|--------------------------|--------------------|--------------------------|
B|-----------10----10-------|--------------------|-----------10----10-------|
G|-----------8-----8--------|------9br--7--9--7--|-----------8-----8--------|
D|-----------9-----9--------|--------------------|-----------9-----9--------|
A|--9---9---------------9---|--9-----------------|--9---9---------------9---|
E|--9---9---------------9---|--9-----------------|--9---9---------------9---|

e|--------------------|--------------------------|--------------------|
B|--------------------|-----------10----10-------|--------------------|
G|------9br--7--9--7--|-----------8-----8--------|------9br--7--9--7--|
D|--------------------|-----------9-----9--------|--------------------|
A|--9-----------------|--9---9---------------9---|--9-----------------|
E|--9-----------------|--9---9---------------9---|--9-----------------|

e|----0-----|--0----0----0---|-----0-----------------|
B|----0-----|--3----3----3---|-----0-----------------|
G|----1-----|--2----2----2---|-----1-----------------|
D|----2-----|--0----0----0---|-----2-----------------|
A|----2-----|----------------|-----2------------14\--|
E|----0-----|----------------|-----0------------14\--|

Outro

e|---------------------|-----------------|---------------------|
B|---------------------|-----------------|---------------------|
G|---------------------|-----------------|---------------------|
D|---------------------|-----------------|---------------------|
A|--2---0---2---0---2--|--2---5---5---4--|--2---0---2---0---2--|
E|--2---0---2---0---2--|--2---5---5---4--|--2---0---2---0---2--|

e|-----------------|---------------------|-----------------|
B|-----------------|---------------------|-----------------|
G|-----------------|---------------------|-----------------|
D|-----------------|---------------------|-----------------|
A|--2---5---5---4--|--2---0---2---0---2--|--2---5---5---4--|
E|--2---5---5---4--|--2---0---2---0---2--|--2---5---5---4--|

e|---------------------|-----------------|---------------------|
B|---------------------|-----------------|---------------------|
G|---------------------|-----------------|---------------------|
D|---------------------|-----------------|---------------------|
A|--2---0---2---0---2--|--2---5---5---4--|--2---0---2---0---2--|
E|--2---0---2---0---2--|--2---5---5---4--|--2---0---2---0---2--|


e|-----------------|---------------------|-----------------|
B|-----------------|---------------------|-----------------|
G|-----------------|---------------------|-----------------|
D|-----------------|---------------------|-----------------|
A|--2---5---5---4--|--2---0---2---0---2--|--2---5---5---4--|
E|--2---5---5---4--|--2---0---2---0---2--|--2---5---5---4--|

e|---------------------|-----------------|---------------------|
B|---------------------|-----------------|---------------------|
G|---------------------|-----------------|---------------------|
D|---------------------|-----------------|---------------------|
A|--2---0---2---0---2--|--2---5---5---4--|--2---0---2---0---2--|
E|--2---0---2---0---2--|--2---5---5---4--|--2---0---2---0---2--|

Fade out
e|-----------------|
B|-----------------|
G|-----------------|
D|-----------------|
A|--2---5---5---4--|
E|--2---5---5---4--|



Guitar III (overdriven )

Outro (let notes ring where possible)

e|-------|----0----|--0-----0-----0--------|----0----|--0-----0-----0--------|
B|-------|---------|-----0-----0-----------|---------|-----0-----0-----------|
G|--3/4--|---------|------------------3/4--|---------|------------------3/4--|
D|-------|---------|-----------------------|---------|-----------------------|
A|-------|---------|-----------------------|---------|-----------------------|
E|-------|---------|-----------------------|---------|-----------------------|

                                              Repeat thru fade out
e|----0----|--0-----0-----0--------|----0----|--0-----0-----0--------|
B|---------|-----0-----0-----------|---------|-----0-----0-----------|
G|---------|------------------3/4--|---------|------------------3/4--|
D|---------|-----------------------|---------|-----------------------|
A|---------|-----------------------|---------|-----------------------|
E|---------|-----------------------|---------|-----------------------|

************************************

| /   slide up
| \   slide down
| h   hammer-on
| p   pull-off
| ~   vibrato
| +   harmonic
| x   Mute note
| b   Bend
| pb  Pre-bend
| br  Bend release
| pbr Pre-bend release
| brb Bend release bend

************************************
Добавлено: 23.12.2013
Другие материалы по этой песне:

Страница создана 26.07.2013
http://primanota.ru/blackfoot/pay-my-dues-chords.htm
Привет, Гость.
Предлагаем пройти революционный курс по гитаре.
Подарок от PrimaNota.Ru, забирай!