PrimaNota.ru - самый крупный в мире бесплатный архив песенных текстов, аккордов, табулатур и нот


Blackfoot - Indian World - текст песни, таба, видео

Регистрация Запомнить меня
Войти через:  Facebook Google Twitter Vk Yandex Mail.ru

Blackfoot - Indian World - текст песни, таба, видео

Печатать
Просмотров: 145
-------------------------------------------------------------------------------
1.                           Indian World - Blackfoot
2.                             No Reservations-1975
3.                       Words and Music by Jakson Spires
-------------------------------------------------------------------------------
Tabbed by: Duane Baldwin
Email: duaneandjulie@gmail.com

Tuning: 1/2 step down

Intro
Guitar I (over driven)
e|-------------------------------------|-------------------3--2--2--|
B|-------------------------------------|-------------------3--3--3--|
G|-------------------------------------|-------------------0--2--2--|
D|----------2----------2p0-------------|---------------2---0--0--0--|
A|--------------------------2p0--2--4--|-------------------2--------|
E|--3p0--0------0h3h4------------------|--3p0--3p0--0------3--------|

e|-------------------------------------|-------------------3--2--2--|
B|-------------------------------------|-------------------3--3--3--|
G|-------------------------------------|-------------------0--2--2--|
D|----------2----------2p0-------------|---------------2---0--0--0--|
A|--------------------------2p0--2--4--|-------------------2--------|
E|--3p0--0------0h3h4------------------|--3p0--3p0--0------3--------|

e|-------------------------------------|-------------------3--2--2--|
B|-------------------------------------|-------------------3--3--3--|
G|-------------------------------------|-------------------0--2--2--|
D|----------2----------2p0-------------|---------------2---0--0--0--|
A|--------------------------2p0--2--4--|-------------------2--------|
E|--3p0--0------0h3h4------------------|--3p0--3p0--0------3--------|

1st Verse                                                                            U
e|---------------|----------------|---------------|----0---------------------|
B|---------------|----------------|---------------|----0---------------------|
G|--9----7----7--|----------7--7--|---------------|----1---------------------|
D|--9----7----7--|--9--9----7--7--|--7--7------5--|----2-------------------5-|
A|--7----5----9--|--9--9----5--9--|--7--7------5--|-2--2-------------5-------|
E|---------------|--7--7----------|--5--5----0h3--|-0-------0--5--7-----7----|
                                                              U
e|---------------------|----------------|---------------|-----0------------|
B|---------------------|----------------|---------------|-----0------------|
G|--9--9--7/9\----7/9--|----------7--9--|---------------|-----1----------7/|
D|--9--9--7/9\----7/9--|--9--9----7--9--|--7--7------5--|-----2----------7/|
A|--7--7--5/7\----5/7--|--9--9----5--7--|--7--7------5--|--2--2----------5/|
E|---------------------|--7--7----------|--5--5----0h3--|--0---------------|
                                                      U
e|------------|-----------------|---------------|-----0--------------------|
B|------------|-----------------|---------------|-----0--------------------|
G|/9-----7/9--|-----------7--9--|---------------|-----1--------------------|
D|/9-----7/9--|--9--9-----7--9--|--7--7------5--|-----2-----------------5--|
A|/7-----5/7--|--9--9-----5--7--|--7--7------5--|--2--2-----------5--------|
E|------------|--7--7-----------|--5--5----0h3--|--0-----0--5--7-----7-----|

                                                                 U
e|------------------------|----------------|---------------|-----0--------|
B|------------------------|----------------|---------------|-----0--------|
G|--9--9----7/9\-----7/9--|----------7--9--|---------------|-----1--------|
D|--9--9----7/9\-----7/9--|--9--9----7--9--|--7--7-------5-|--2--2--------|
A|--7--7----5/7\-----5/7--|--9--9----5--7--|--7--7-------5-|--2-----------|
E|------------------------|--7--7----------|--5--5-----0h3-|--0-----------|

1st Chorus (clean)
e|--0--0--0--2--2--2--|--3------------------|--0--0--0--2--2--2--|
B|--1--1--1--3--3--3--|--3------------------|--1--1--1--3--3--3--|
G|--0--0--0--2--2--2--|--0----0----0--0--0--|--0--0--0--2--2--2--|
D|--2--2--2--0--0--0--|--0----0----2--2--2--|--2--2--2--0--0--0--|
A|--3--3--3-----------|--2----0----2--2--2--|--3--3--3-----------|
E|--------------------|--3----2----0--0--0--|--------------------|

  Let Ring   ---|    ---------------------------------------------------|
e|--2-------------------2--|--0--0--0--2--2--2--|--3--------------------|
B|--3------2h3--2--2h3-----|--1--1--1--3--3--3--|--3--------------------|
G|--4---4------------------|--0--0--0--2--2--2--|--0----0----0--0--0----|
D|--4----------------------|--2--2--2--0--0--0--|--0----0----2--2--2----|
A|--2----------------------|--3--3--3-----------|--2----0----2--2--2----|
E|-------------------------|--------------------|--3----2----0--0--0----|

                                              Chorus fills
e|--0--0--0--2--2--2--|----------------------|--10----------------------|
B|--1--1--1--3--3--3--|----------------------|------10br--8-------------|
G|--0--0--0--2--2--2--|----------------------|--------------------------|
D|--2--2--2--0--0--0--|----------------------|--------------------------|
A|--3--3--3-----------|----------------------|--------------------------|
E|--------------------|----------------------|--------------------------|

 1st Solo (second solo played over top of 1st solo appears underneath after the 
completion of the first solo)
e|---------------|------------------|-----------------|-----10p7--10p7----7--|
B|--5qbr--3--5b--|------------------|-----------7--8--|-10-------------10----|
G|---------------|--0-----0--2br--0/|/4----7/9--------|----------------------|
D|---------------|------------------|-----------------|----------------------|
A|---------------|------------------|-----------------|----------------------|
E|---------------|------------------|-----------------|----------------------|

e|--10b--10br--7--12b--|--15--15--14--15-----14br--12--14--|
B|---------------------|-----------------------------------|
G|---------------------|-----------------------------------|
D|---------------------|-----------------------------------|
A|---------------------|-----------------------------------|
E|---------------------|-----------------------------------|

e|-----------------------|-------------------10--12--12br--10--|------10b----|
B|--12-------------------|----------(10)h12--------------------|-------------|
G|---------14br--12--14--|--11---------------------------------|--9----------|
D|-----------------------|-------------------------------------|-------------|
A|-----------------------|-------------------------------------|-------------|
E|-----------------------|-------------------------------------|-------------|

2nd over dubbed solo
e|----------------|--------------3--5--|------------------------|
B|--------3br--0--|--3------3/5--------|--5-----8p5--8p5-----5--|
G|--0-------------|--------------------|------------------7-----|
D|----------------|--------------------|------------------------|
A|----------------|--------------------|------------------------|
E|----------------|--------------------|------------------------|

e|-------------------|-------------------------|-----------------------|
B|--8b--8br--7--10b--|--8--8--7--8----8--7--5--|--7--8-----7--7-----7--|
G|-------------------|-------------------------|-----------------5-----|
D|-------------------|-------------------------|-----------------------|
A|-------------------|-------------------------|-----------------------|
E|-------------------|-------------------------|-----------------------|

e|-------------------------|--------10b----|
B|--7----------------------|---------------|
G|--------------7--9br--7--|--9------------|
D|--------7--9-------------|---------------|
A|-------------------------|---------------|
E|-------------------------|---------------|

Transition to 2nd verse
e|-------------------------------------|--------------------3--2--2--|
B|-------------------------------------|--------------------3--3--3--|
G|-------------------------------------|---------------2----0--2--2--|
D|----------2----------2p0-------------|---------------2----0--0--0--|
A|--------------------------2p0--2--4--|---------------0----2--------|
E|--3p0--0------0h3h4------------------|--3p0--3p0--0-------3--------|

2nd Verse
                                                       U
e|---------------|----------------|---------------|----0---------------------|
B|---------------|----------------|---------------|----0---------------------|
G|--9----7----7--|----------7--7--|---------------|----1---------------------|
D|--9----7----7--|--9--9----7--7--|--7--7------5--|----2-------------------5-|
A|--7----5----9--|--9--9----5--9--|--7--7------5--|-2--2-------------5-------|
E|---------------|--7--7----------|--5--5----0h3--|-0-------0--5--7-----7----|

e|---------------------|----------------|---------------|------2-------|
B|---------------------|----------------|---------------|------3-------|
G|--9--9--7/9\----7/9--|----------7--9--|---------------|------2-------|
D|--9--9--7/9\----7/9--|--9--9----7--9--|--7--7------5--|------0-------|
A|--7--7--5/7\----5/7--|--9--9----5--7--|--7--7------5--|--------------|
E|---------------------|--7--7----------|--5--5----0h3--|--------------|
                                                       U
e|-------------|-----------------|---------------|-----0--------------------|
B|-------------|-----------------|---------------|-----0--------------------|
G|--9-----7/9--|-----------7--9--|---------------|-----1--------------------|
D|--9-----7/9--|--9--9-----7--9--|--7--7------5--|-----2-----------------5--|
A|--7-----5/7--|--9--9-----5--7--|--7--7------5--|--2--2-----------5--------|
E|-------------|--7--7-----------|--5--5----0h3--|--0-----0--5--7-----7-----|
                                                                         U
e|------------------------|----------------|---------------|-----0--------|
B|------------------------|----------------|---------------|-----0--------|
G|--9--9----7/9\-----7/9--|----------7--9--|---------------|-----1--------|
D|--9--9----7/9\-----7/9--|--9--9----7--9--|--7--7-------5-|--2--2--------|
A|--7--7----5/7\-----5/7--|--9--9----5--7--|--7--7-------5-|--2-----------|
E|------------------------|--7--7----------|--5--5-----0h3-|--0-----------|

2nd Chorus (clean)
e|--0--0--0--2--2--2--|--3------------------|--0--0--0--2--2--2--|
B|--1--1--1--3--3--3--|--3------------------|--1--1--1--3--3--3--|
G|--0--0--0--2--2--2--|--0----0----0--0--0--|--0--0--0--2--2--2--|
D|--2--2--2--0--0--0--|--0----0----2--2--2--|--2--2--2--0--0--0--|
A|--3--3--3-----------|--2----0----2--2--2--|--3--3--3-----------|
E|--------------------|--3----2----0--0--0--|--------------------|

  Let Ring  --|
e|--2-----------2--2-------|--0--0--0--2--2--2--|--3------------------|
B|--3------2h3--------2h3--|--1--1--1--3--3--3--|--3------------------|
G|--4---4------------------|--0--0--0--2--2--2--|--0----0----0--0--0--|
D|--4----------------------|--2--2--2--0--0--0--|--0----0----2--2--2--|
A|--2----------------------|--3--3--3-----------|--2----0----2--2--2--|
E|-------------------------|--------------------|--3----2----0--0--0--|

 Chorus      fill *let note ring till end of chorus 2nd time  played
e|----0-----|----------------------|--10----------------------|
B|----1-----|----------------------|------10br--8-------------|
G|----0-----|----------------------|---------------8*---------|
D|----2-----|----------------------|--------------------------|
A|----3-----|----------------------|--------------------------|
E|----------|----------------------|--------------------------|

Outro  (Over driven)
e|--------------------------------|------------------------------------------|
B|--------------------------------|------------------------------------------|
G|--------------------------------|----------------------------------------2-|
D|--2p0-----0----------------2----|---------2p0----------------------------2-|
A|-------2-----2p0----------------|--------------2p0--2--4-----------------0-|
E|------------------3h0--0--------|--0h3h4--------------------3p0--3p0--0----|

e|--3--2--2-------------|------------------------------------------|-3--2--2-|
B|--3--3--3-------------|------------------------------------------|-3--3--3-|
G|--0--2--2-------------|----------------------------------------2-|-0--2--2-|
D|--0--0--0----------2--|---------2p0----------------------------2-|-0--0--0-|
A|--2-------------------|--------------2p0--2--4-----------------0-|-2-------|
E|--3--------3p0--0-----|--0h3h4--------------------3p0--3p0--0----|-3-------|

e|-------------------------------------|--------------------3--2--2--|
B|-------------------------------------|--------------------3--3--3--|
G|-------------------------------------|---------------2----3--2--2--|
D|----------2----------2p0-------------|---------------2----0--0--0--|
A|--------------------------2p0--2--4--|---------------0----2--------|
E|--3p0--0------0h3h4------------------|--3p0--3p0--0-------3--------|

e|-------------------------------------|-------------------|
B|-------------------------------------|-------------------|
G|-------------------------------------|---------------2---|
D|----------2----------2p0-------------|---------------2---|
A|--------------------------2p0--2--4--|---------------0---|
E|--3p0--0------0h3h4------------------|--3p0--3p0--0------|

Guitar II (over driven)
Intro
e|-------------------------------------|-------------------3--2--2--|
B|-------------------------------------|-------------------3--3--3--|
G|-------------------------------------|-------------------0--2--2--|
D|----------2----------2p0-------------|---------------2---0--0--0--|
A|--------------------------2p0--2--4--|-------------------2--------|
E|--3p0--0------0h3h4------------------|--3p0--3p0--0------3--------|

e|-------------------------------------|-------------------3--2--2--|
B|-------------------------------------|-------------------3--3--3--|
G|-------------------------------------|-------------------0--2--2--|
D|----------2----------2p0-------------|---------------2---0--0--0--|
A|--------------------------2p0--2--4--|-------------------2--------|
E|--3p0--0------0h3h4------------------|--3p0--3p0--0------3--------|

e|-------------------------------------|-------------------3--2--2--|
B|-------------------------------------|-------------------3--3--3--|
G|-------------------------------------|-------------------0--2--2--|
D|----------2----------2p0-------------|---------------2---0--0--0--|
A|--------------------------2p0--2--4--|-------------------2--------|
E|--3p0--0------0h3h4------------------|--3p0--3p0--0------3--------|

1st Verse
e|---------------|----------------|---------------|----------------------------|
B|---------------|----------------|---------------|----------------------------|
G|--9----7----7--|----------7--7--|---------------|----------------------------|
D|--9----7----7--|--9--9----7--7--|--7--7------5--|-----------------------5----|
A|--7----5----9--|--9--9----5--9--|--7--7------5--|-2--------------5-----------|
E|---------------|--7--7----------|--5--5----0h3--|-0------0--5--7-----7-------|
e|---------------------|----------------|---------------|----------------------|
B|---------------------|----------------|---------------|----------------------|
G|--9--9--7/9\----7/9--|----------7--9--|---------------|---------------7/|----|
D|--9--9--7/9\----7/9--|--9--9----7--9--|--7--7------5--|---------------7/|----|
A|--7--7--5/7\----5/7--|--9--9----5--7--|--7--7------5--|--2------------5/|----|
E|---------------------|--7--7----------|--5--5----0h3--|--0-------------------|

e|------------|-----------------|---------------|----------------------------|
B|------------|-----------------|---------------|----------------------------|
G|/9-----7/9--|-----------7--9--|---------------|----------------------------|
D|/9-----7/9--|--9--9-----7--9--|--7--7------5--|-------------------------5--|
A|/7-----5/7--|--9--9-----5--7--|--7--7------5--|--2---------------5---------|
E|------------|--7--7-----------|--5--5----0h3--|--0-----0--5--7-------7-----|

e|------------------------|----------------|---------------|-------------|
B|------------------------|----------------|---------------|-------------|
G|--9--9----7/9\-----7/9--|----------7--9--|---------------|-------------|
D|--9--9----7/9\-----7/9--|--9--9----7--9--|--7--7-------5-|-------------|
A|--7--7----5/7\-----5/7--|--9--9----5--7--|--7--7-------5-|--2----------|
E|------------------------|--7--7----------|--5--5-----0h3-|--0----------|

1st Chorus  clean)
e|--0-----0---2----2--|--3------------------|--0-----0--2-----2--|
B|--1-----1---3----3--|--3------------------|--1-----1--3-----3--|
G|--0-----0---2----2--|--0---------0-----0--|--0-----0--2-----2--|
D|--2-----2---0----0--|--0---------2-----2--|--2-----2--0-----0--|
A|--3-----3-----------|--2---------2-----2--|--3-----3-----------|
E|--------------------|--3----2----0-----0--|--------------------|

e|--2----2----2----2----|--0-----0---2-----2--|--3------------------|
B|--3----3----3----3----|--1-----1---3-----3--|--3------------------|
G|--4----4----4----4----|--0-----0---2-----2--|--0---------0-----0--|
D|--4----4----4----4----|--2-----2---0-----0--|--0---------2-----2--|
A|--2----2----2----2----|--3-----3------------|--2---------2-----2--|
E|----------------------|---------------------|--3----2----0-----0--|

e|--0-----0---2-----2--|
B|--1-----1---3-----3--|
G|--0-----0---2-----2--|
D|--2-----2---0-----0--|
A|--3-----3------------|
E|---------------------|

solo (Over driven)
e|--------------------|---------|----------|-----------------|
B|--------------------|---------|----------|-----------------|
G|--------------------|---------|-----4----|-----------------|
D|--2----2----0----2--|----2----|-----4----|---7------5------|
A|--2----2----0----2--|----2----|-----2----|---7------5------|
E|--0----0----0----0--|----0----|----------|---5------3------|

e|-------------------|----------------|-----7----|----------|----------|
B|-------------------|----------------|-----8----|----7-----|----------|
G|---------4-4--7-7--|--9--9----7--9--|-----7----|----7-----|----------|
D|--2------4-4--7-7--|--9--9----7--9--|-----9----|----7-----|----------|
A|--2------0h2--0h5--|--7--7----5--7--|----------|----------|----2-----|
E|--0----------------|----------------|----------|----------|----0-----|

Transition to 2nd verse (over driven)
e|-------------------------------------|--------------------3--2--2-----|
B|-------------------------------------|--------------------3--3--3-----|
G|-------------------------------------|---------------2----0--2--2-----|
D|----------2----------2p0-------------|---------------2----0--0--0-----|
A|--------------------------2p0--2--4--|---------------0----2-----------|
E|--3p0--0------0h3h4------------------|--3p0--3p0--0-------3-----------|

2nd Verse
e|---------------|----------------|---------------|--------------------------|
B|---------------|----------------|---------------|--------------------------|
G|--9----7----7--|----------7--7--|---------------|--------------------------|
D|--9----7----7--|--9--9----7--7--|--7--7------5--|-----------------------5--|
A|--7----5----9--|--9--9----5--9--|--7--7------5--|-2--------------5---------|
E|---------------|--7--7----------|--5--5----0h3--|-0------0--5--7-----7-----|


e|---------------------|----------------|---------------|---------------|
B|---------------------|----------------|---------------|---------------|
G|--9--9--7/9\----7/9--|----------7--9--|---------------|--7------------|
D|--9--9--7/9\----7/9--|--9--9----7--9--|--7--7------5--|--7------------|
A|--7--7--5/7\----5/7--|--9--9----5--7--|--7--7------5--|--5------------|
E|---------------------|--7--7----------|--5--5----0h3--|---------3-----|

e|------------|-----------------|---------------|----------------------------|
B|------------|-----------------|---------------|----------------------------|
G|-------7/9--|-----------7--9--|---------------|----------------------------|
D|--2----7/9--|--9--9-----7--9--|--7--7------5--|-------------------------5--|
A|--2----5/7--|--9--9-----5--7--|--7--7------5--|--2---------------5---------|
E|--0---------|--7--7-----------|--5--5----0h3--|--0-----0--5--7-------7-----|

e|------------------------|----------------|---------------|
B|------------------------|----------------|---------------|
G|--9--9----7/9\-----7/9--|----------7--9--|---------------|
D|--9--9----7/9\-----7/9--|--9--9----7--9--|--7--7-------5-|
A|--7--7----5/7\-----5/7--|--9--9----5--7--|--7--7-------5-|
E|------------------------|--7--7----------|--5--5-----0h3-|

e|----------------------------|------------------------|----------------|
B|----------------------------|------------------------|----------------|
G|----------------------------|--9--9----7/9\-----7/9--|----------7--9--|
D|-------------------------5--|--9--9----7/9\-----7/9--|--9--9----7--9--|
A|--2---------------5---------|--7--7----5/7\-----5/7--|--9--9----5--7--|
E|--0-----0--5--7-------7-----|------------------------|--7--7----------|

e|---------------|-----------|
B|---------------|-----------|
G|---------------|-----------|
D|--7--7------5--|-----2-----|
A|--7--7------5--|-----2-----|
E|--5--5----0h3--|-----0-----|

2nd  Chorus  (clean)
e|--0-----0---2----2--|--3------------------|--0-----0--2-----2--|
B|--1-----1---3----3--|--3------------------|--1-----1--3-----3--|
G|--0-----0---2----2--|--0---------0-----0--|--0-----0--2-----2--|
D|--2-----2---0----0--|--0---------2-----2--|--2-----2--0-----0--|
A|--3-----3-----------|--2---------2-----2--|--3-----3-----------|
E|--------------------|--3----2----0-----0--|--------------------|

e|--2----2----2----2----|--0-----0---2-----2--|--3------------------|
B|--3----3----3----3----|--1-----1---3-----3--|--3------------------|
G|--4----4----4----4----|--0-----0---2-----2--|--0---------0-----0--|
D|--4----4----4----4----|--2-----2---0-----0--|--0---------2-----2--|
A|--2----2----2----2----|--3-----3------------|--2---------2-----2--|
E|----------------------|---------------------|--3----2----0-----0--|

e|-----0-----|
B|-----1-----|
G|-----0-----|
D|-----2-----|
A|-----3-----|
E|-----------|

Outro (over driven)
e|--------------------------------|------------------------------------------|
B|--------------------------------|------------------------------------------|
G|--------------------------------|----------------------------------------2-|
D|--2p0-----0----------------2----|---------2p0----------------------------2-|
A|-------2-----2p0----------------|--------------2p0--2--4-----------------0-|
E|------------------3h0--0--------|--0h3h4--------------------3p0--3p0--0----|

e|--3--2--2-------------|------------------------------------------|-3--2--2-|
B|--3--3--3-------------|------------------------------------------|-3--3--3-|
G|--0--2--2-------------|----------------------------------------2-|-0--2--2-|
D|--0--0--0----------2--|---------2p0----------------------------2-|-0--0--0-|
A|--2-------------------|--------------2p0--2--4-----------------0-|-2-------|
E|--3--------3p0--0-----|--0h3h4--------------------3p0--3p0--0----|-3-------|

e|-------------------------------------|--------------------3--2--2--|
B|-------------------------------------|--------------------3--3--3--|
G|-------------------------------------|---------------2----0--2--2--|
D|----------2----------2p0-------------|---------------2----0--0--0--|
A|--------------------------2p0--2--4--|---------------0----2--------|
E|--3p0--0------0h3h4------------------|--3p0--3p0--0-------3--------|

e|-------------------------------------|-------------------|
B|-------------------------------------|-------------------|
G|-------------------------------------|---------------2---|
D|----------2----------2p0-------------|---------------2---|
A|--------------------------2p0--2--4--|---------------0---|
E|--3p0--0------0h3h4------------------|--3p0--3p0--0------|

************************************

| /   slide up
| \   slide down
| h   hammer-on
| p   pull-off
| ~   vibrato
| +   harmonic
| x   Mute note
|()   Grace note
| u   upstroke
| b   Bend
| qb  Quarter bend
| pb  Pre-bend
| br  Bend release
| pbr Pre-bend release
| brb Bend release bend

************************************
Intro

N.C.  G D

N.C.  G D

N.C.  A G D

1st Verse

     E                   D    E  B          D  E A
Well I've been thinking about my childhood

                      E     G    E   N.C.
and what your books  they taught me

     E           D    E   D     E   B       D E A
if things don't work out like they ought to

                   E    G   E  N.C.
it wouldn't matter much to me

    E                     D   E       B          D E A
Yes look at the land and see all the destruction

                E    G   E   N.C.
in a land that once was mine

     E          D  E
Well do you go foward?

     D  E    B        D E A
well I don't think so

                       E  G   E
we'll have it all back in due time

Chorus

C            D           G F#/G  Em
  My heart belongs in an   Indian world

C             D             Bm
 a place that I can call my home

C           D          G  F#/G       Em
 I've been living in a   whiteman's world

C       D              E
 taught nothing of my own

Solo

E  Bm  A  G

E  Bm  D  E  D  E

Dsus6  D  E

N.C   A G D

2nd Verse

   E            D   E      B      D  E  A
We use to soar high as the eagles

          E   G    E    N.C.
as far as we could fly

    E             D   E  D   E           B      D  E  A
and then you came along lookin' for your targets

                              D
and now the eagles they have died

    E          D    E            B      D  E  A
you killed our fathers raped our mothers

                    E     G    E   N.C.
killed our sons and daughters too

   E          D  E
we break your laws

         B       D  E  A
we don't mean to

                   E   G  E
we can't help but what we are

Chorus

C            D           G F#/G  Em
  My heart belongs in an   Indian world

C             D             Bm
 a place that I can call my home

C           D          G  F#/G       Em
 I've been living in a   whiteman's world

C  N.C.
  taught nothing of my own


Outro

N.C.  A G  D

N.C.  A G  D

N.C.  A G  D

N.C.  A
Добавлено: 23.04.2012
Другие материалы по этой песне:

Страница создана 20.03.2012
http://primanota.ru/blackfoot/indian-world-chords.htm
Привет, Гость.
Предлагаем пройти революционный курс по гитаре.
Подарок от PrimaNota.Ru, забирай!