PrimaNota.ru - самый крупный в мире бесплатный архив песенных текстов, аккордов, табулатур и нот


Blackfoot - In The Night - таба, видео

Регистрация Запомнить меня
Войти через:  Facebook Google Twitter Vk Yandex Mail.ru

Blackfoot - In The Night - таба, видео

Печатать
Просмотров: 133
------------------------------------------------------------------------------
                            In The Night- Blackfoot
                                Tomcattin'-1980
               Words and Music by Rick Medlocke and Jakson Spiers
------------------------------------------------------------------------------
Tabbed by:Duane Baldwin
E-mail: duaneandjulie@gmail.com

Tuning: Standard

Guitar I (Over driven)

Intro

    (Drums)
e|------------------|------------------|------------------|------------------|
B|------------------|------------------|------------------|------------------|
G|------------------|------------------|------------------|------------------|
D|------------------|------------------|------------------|------------------|
A|------------------|------------------|------------------|------------------|
E|------------------|------------------|------------------|------------------|

e|------------------|---------------------------|-------------------3--|
B|------------------|---------------------------|-------------------3--|
G|------------------|------------------------2--|---------------2---0--|
D|------------------|--------2-----------2---2--|-----------2---2---0--|
A|------------------|--0--2--------2--0------0--|-----0--2------0---2--|
E|------------------|-----------0---------------|--0----------------3--|

e|---------------------------|-------------------3--|
B|---------------------------|-------------------3--|
G|------------------------2--|---------------2---0--|
D|--------2-----------2---2--|-----------2---2---0--|
A|--0--2--------2--0------0--|-----0--2------0---2--|
E|-----------0---------------|--0----------------3--|

e|---------------------------|-------------------3--|
B|---------------------------|-------------------3--|
G|------------------------2--|---------------2---0--|
D|--------2-----------2---2--|-----------2---2---0--|
A|--0--2--------2--0------0--|-----0--2------0---2--|
E|-----------0---------------|--0----------------3--|

1st Verse

e|---------------------------|-------------------3--|
B|---------------------------|-------------------3--|
G|------------------------2--|---------------2---0--|
D|--------2-----------2---2--|-----------2---2---0--|
A|--0--2--------2--0------0--|-----0--2------0---2--|
E|-----------0---------------|--0----------------3--|

e|---------------------------|-------------------3--|
B|---------------------------|-------------------3--|
G|------------------------2--|---------------2---0--|
D|--------2-----------2---2--|-----------2---2---0--|
A|--0--2--------2--0------0--|-----0--2------0---2--|
E|-----------0---------------|--0----------------3--|

e|---------------------------|-------------------3--|
B|---------------------------|-------------------3--|
G|------------------------2--|---------------2---0--|
D|--------2-----------2---2--|-----------2---2---0--|
A|--0--2--------2--0------0--|-----0--2------0---2--|
E|-----------0---------------|--0----------------3--|

e|---------------------------|-------------------3--|
B|---------------------------|-------------------3--|
G|------------------------2--|---------------2---0--|
D|--------2-----------2---2--|-----------2---2---0--|
A|--0--2--------2--0------0--|-----0--2------0---2--|
E|-----------0---------------|--0----------------3--|

1st Chorus

e|--------------|-----------|-----------|-----------|-----------|-----------|
B|--------------|-----------|-----------|-----------|-----------|-----------|
G|--2---5----5--|-----5-----|--7-----7--|-----7-----|-----------|-----------|
D|--2---5----5--|-----5-----|--7-----7--|-----7-----|--2-----2--|-----2-----|
A|--0---3----3--|-----3-----|--5-----5--|-----5-----|--2-----2--|-----2-----|
E|--------------|-----------|-----------|-----------|--0-----0--|-----0-----|

e|-----------------------|--0---------|-----------|-----------|-----------|
B|-----------------------|--0---------|-----------|-----------|-----------|
G|-----------0-----------|--------2---|--5-----5--|-----5-----|--7-----7--|
D|--------2--------------|--------2---|--5-----5--|-----5-----|--7-----7--|
A|--0--2--------0--------|--------0---|--3-----3--|-----3-----|--5-----5--|
E|-----------------3--0--|------------|-----------|-----------|-----------|

e|----------|--------------2-----------|-----------------|
B|----------|--3--------3-----3--------|-----------------|
G|----7-----|--4-----4-----------4-----|----2------2-----|
D|----7-----|--4--4-----------------4--|----2------2-----|
A|----5-----|--2-----------------------|----0------0-----|
E|----------|--------------------------|-----------------|

End of Chorus into short harmonica solo
  
e|---------------------------|-------------------3--|
B|---------------------------|-------------------3--|
G|------------------------2--|---------------2---0--|
D|--------2-----------2---2--|-----------2---2---0--|
A|--0--2--------2--0------0--|-----0--2------0---2--|
E|-----------0---------------|--0----------------3--|

e|---------------------------|-------------------3--|
B|---------------------------|-------------------3--|
G|------------------------2--|---------------2---0--|
D|--------2-----------2---2--|-----------2---2---0--|
A|--0--2--------2--0------0--|-----0--2------0---2--|
E|-----------0---------------|--0----------------3--|

2nd Verse

e|---------------------------|-------------------3--|
B|---------------------------|-------------------3--|
G|------------------------2--|---------------2---0--|
D|--------2-----------2---2--|-----------2---2---0--|
A|--0--2--------2--0------0--|-----0--2------0---2--|
E|-----------0---------------|--0----------------3--|

e|---------------------------|-------------------3--|
B|---------------------------|-------------------3--|
G|------------------------2--|---------------2---0--|
D|--------2-----------2---2--|-----------2---2---0--|
A|--0--2--------2--0------0--|-----0--2------0---2--|
E|-----------0---------------|--0----------------3--|

e|---------------------------|-------------------3--|
B|---------------------------|-------------------3--|
G|------------------------2--|---------------2---0--|
D|--------2-----------2---2--|-----------2---2---0--|
A|--0--2--------2--0------0--|-----0--2------0---2--|
E|-----------0---------------|--0----------------3--|

e|---------------------------|-------------------3--|
B|---------------------------|-------------------3--|
G|------------------------2--|---------------2---0--|
D|--------2-----------2---2--|-----------2---2---0--|
A|--0--2--------2--0------0--|-----0--2------0---2--|
E|-----------0---------------|--0----------------3--|

2nd Chorus

e|--------------|-----------|-----------|-----------|-----------|-----------|
B|--------------|-----------|-----------|-----------|-----------|-----------|
G|--2---5----5--|-----5-----|--7-----7--|-----7-----|-----------|-----------|
D|--2---5----5--|-----5-----|--7-----7--|-----7-----|--2-----2--|-----2-----|
A|--0---3----3--|-----3-----|--5-----5--|-----5-----|--2-----2--|-----2-----|
E|--------------|-----------|-----------|-----------|--0-----0--|-----0-----|

e|-----------------------|--0---------|-----------|-----------|-----------|
B|-----------------------|--0---------|-----------|-----------|-----------|
G|-----------0-----------|--------2---|--5-----5--|-----5-----|--7-----7--|
D|--------2--------------|--------2---|--5-----5--|-----5-----|--7-----7--|
A|--0--2--------0--------|--------0---|--3-----3--|-----3-----|--5-----5--|
E|-----------------3--0--|------------|-----------|-----------|-----------|

e|----------|--------------2-----------|---------|
B|----------|--3--------3-----3--------|---------|
G|----7-----|--4-----4-----------4-----|----2----|
D|----7-----|--4--4-----------------4--|----2----|
A|----5-----|--2-----------------------|----0----|
E|----------|--------------------------|---------|


Main Solo


e|--3---------|-----------|----------|----------|-----------|-----------|
B|--3---------|--------6--|--5-------|-------8--|--7-----7--|-----------|
G|--0----2----|--5-----5--|--5----5--|--7----7--|--7-----7--|-----------|
D|--0----2----|--5-----5--|--5----5--|--7----7--|--7-----7--|-----2-----|
A|--2----0----|--3-----3--|--3----3--|--5----5--|--5-----5--|-----2-----|
E|--3---------|-----------|----------|----------|-----------|-----0-----|

e|-----------|--------------------------|--0------------|-----------|
B|-----------|--------------0-----------|--0------------|--------6--|
G|-----------|-----------2--------------|--------2------|--5-----5--|
D|--2-----2--|--------2-----------------|--------2------|--5-----5--|
A|--2-----2--|--0--2-----------0--------|--------0------|--3-----3--|
E|--0-----0--|--------------------3--0--|---------------|-----------|

e|----------|----------|-----------|--------------2-----------|-----------|
B|--5-------|-------8--|--7-----7--|--3--------3-----3--------|-----------|
G|--5----5--|--7----7--|--7-----7--|--4-----4-----------4-----|-----2-----|
D|--5----5--|--7----7--|--7-----7--|--4--4-----------------4--|-----2-----|
A|--3----3--|--5----5--|--5-----5--|--2-----------------------|-----0-----|
E|----------|----------|-----------|--------------------------|-----------|

e|----------|
B|------3---|
G|------0---|
D|--0---0---|
A|--2-------|
E|--3-------|

e|---------------------------|-------------------3--|
B|---------------------------|-------------------3--|
G|------------------------2--|---------------2---0--|
D|--------2-----------2---2--|-----------2---2---0--|
A|--0--2--------2--0------0--|-----0--2------0---2--|
E|-----------0---------------|--0----------------3--|

e|---------------------------|-------------------3--|
B|---------------------------|-------------------3--|
G|------------------------2--|---------------2---0--|
D|--------2-----------2---2--|-----------2---2---0--|
A|--0--2--------2--0------0--|-----0--2------0---2--|
E|-----------0---------------|--0----------------3--|

3rd Verse

e|---------------------------|-------------------3--|
B|---------------------------|-------------------3--|
G|------------------------2--|---------------2---0--|
D|--------2-----------2---2--|-----------2---2---0--|
A|--0--2--------2--0------0--|-----0--2------0---2--|
E|-----------0---------------|--0----------------3--|

e|---------------------------|-------------------3--|
B|---------------------------|-------------------3--|
G|------------------------2--|---------------2---0--|
D|--------2-----------2---2--|-----------2---2---0--|
A|--0--2--------2--0------0--|-----0--2------0---2--|
E|-----------0---------------|--0----------------3--|

e|---------------------------|-------------------3--|
B|---------------------------|-------------------3--|
G|------------------------2--|---------------2---0--|
D|--------2-----------2---2--|-----------2---2---0--|
A|--0--2--------2--0------0--|-----0--2------0---2--|
E|-----------0---------------|--0----------------3--|

e|---------------------------|-------------------3--|
B|---------------------------|-------------------3--|
G|------------------------2--|---------------2---0--|
D|--------2-----------2---2--|-----------2---2---0--|
A|--0--2--------2--0------0--|-----0--2------0---2--|
E|-----------0---------------|--0----------------3--|


3rd Chorus


e|--------------|-----------|-----------|-----------|-----------|-----------|
B|--------------|-----------|-----------|-----------|-----------|-----------|
G|--2---5----5--|-----5-----|--7-----7--|-----7-----|-----------|-----------|
D|--2---5----5--|-----5-----|--7-----7--|-----7-----|--2-----2--|-----2-----|
A|--0---3----3--|-----3-----|--5-----5--|-----5-----|--2-----2--|-----2-----|
E|--------------|-----------|-----------|-----------|--0-----0--|-----0-----|

e|-----------------------|--0---------|-----------|-----------|-----------|
B|-----------------------|--0---------|-----------|-----------|-----------|
G|-----------0-----------|--------2---|--5-----5--|-----5-----|--7-----7--|
D|--------2--------------|--------2---|--5-----5--|-----5-----|--7-----7--|
A|--0--2--------0--------|--------0---|--3-----3--|-----3-----|--5-----5--|
E|-----------------3--0--|------------|-----------|-----------|-----------|

e|----------|----------------|----------------|----------------|
B|----------|----------------|----------------|----------------|
G|----7-----|--4-4--4--4--4--|--4-4--4--4--4--|--4-4--4--4--4--|
D|----7-----|--4-4--4--4--4--|--4-4--4--4--4--|--4-4--4--4--4--|
A|----5-----|--0h2--2--2--2--|--0h2--2--2--2--|--0h2--2--2--2--|
E|----------|----------------|----------------|----------------|

e|-------------------|-----------|-----------|-----------|----------|
B|-------------------|-----------|-----------|-----------|----------|
G|--4-4--4--4--4--4--|--5-----5--|-----5-----|--7-----7--|----7-----|
D|--4-4--4--4--4--4--|--5-----5--|-----5-----|--7-----7--|----7-----|
A|--0h2--2--2--2--2--|--3-----3--|-----3-----|--5-----5--|----5-----|
E|-------------------|-----------|-----------|-----------|----------|

e|-----------|-----------|-----------------------|--0---------|
B|-----------|-----------|-----------------------|--0---------|
G|-----------|-----------|-----------0-----------|--------2---|
D|--2-----2--|-----2-----|--------2--------------|--------2---|
A|--2-----2--|-----2-----|--0--2--------0--------|--------0---|
E|--0-----0--|-----0-----|-----------------3--0--|------------|

e|-----------|-----------|-----------|----------|--------------2-----------|
B|-----------|-----------|-----------|----------|--3--------3-----3--------|
G|--5-----5--|-----5-----|--7-----7--|----7-----|--4-----4-----------4-----|
D|--5-----5--|-----5-----|--7-----7--|----7-----|--4--4-----------------4--|
A|--3-----3--|-----3-----|--5-----5--|----5-----|--2-----------------------|
E|-----------|-----------|-----------|----------|--------------------------|

e|---------|----3----|
B|---------|----3----|
G|----2----|----0----|
D|----2----|----0----|
A|----0----|----2----|
E|---------|----3----|

End of Chorus into outro

e|---------------------------|-------------------3--|
B|---------------------------|-------------------3--|
G|------------------------2--|---------------2---0--|
D|--------2-----------2---2--|-----------2---2---0--|
A|--0--2--------2--0------0--|-----0--2------0---2--|
E|-----------0---------------|--0----------------3--|

e|---------------------------|-------------------3--|
B|---------------------------|-------------------3--|
G|------------------------2--|---------------2---0--|
D|--------2-----------2---2--|-----------2---2---0--|
A|--0--2--------2--0------0--|-----0--2------0---2--|
E|-----------0---------------|--0----------------3--|

Guitar II (Over driven)

Intro

    (Drums)
e|------------------|------------------|------------------|------------------|
B|------------------|------------------|------------------|------------------|
G|------------------|------------------|------------------|------------------|
D|------------------|------------------|------------------|------------------|
A|------------------|------------------|------------------|------------------|
E|------------------|------------------|------------------|------------------|

e|------------------|---------------------------|-------------------3--|
B|------------------|---------------------------|-------------------3--|
G|------------------|------------------------2--|---------------2---0--|
D|------------------|--------2-----------2---2--|-----------2---2---0--|
A|------------------|--0--2--------2--0------0--|-----0--2------0---2--|
E|------------------|-----------0---------------|--0----------------3--|

e|---------------------------|-------------------3--|
B|---------------------------|-------------------3--|
G|------------------------2--|---------------2---0--|
D|--------2-----------2---2--|-----------2---2---0--|
A|--0--2--------2--0------0--|-----0--2------0---2--|
E|-----------0---------------|--0----------------3--|

e|---------------------------|-------------------3--|
B|---------------------------|-------------------3--|
G|------------------------2--|---------------2---0--|
D|--------2-----------2---2--|-----------2---2---0--|
A|--0--2--------2--0------0--|-----0--2------0---2--|
E|-----------0---------------|--0----------------3--|

1st Verse

e|---------------------------|-------------------3--|
B|---------------------------|-------------------3--|
G|------------------------2--|---------------2---0--|
D|--------2-----------2---2--|-----------2---2---0--|
A|--0--2--------2--0------0--|-----0--2------0---2--|
E|-----------0---------------|--0----------------3--|

e|---------------------------|-------------------3--|
B|---------------------------|-------------------3--|
G|------------------------2--|---------------2---0--|
D|--------2-----------2---2--|-----------2---2---0--|
A|--0--2--------2--0------0--|-----0--2------0---2--|
E|-----------0---------------|--0----------------3--|

e|---------------------------|-------------------3--|
B|---------------------------|-------------------3--|
G|------------------------2--|---------------2---0--|
D|--------2-----------2---2--|-----------2---2---0--|
A|--0--2--------2--0------0--|-----0--2------0---2--|
E|-----------0---------------|--0----------------3--|

e|---------------------------|-------------------3--|
B|---------------------------|-------------------3--|
G|------------------------2--|---------------2---0--|
D|--------2-----------2---2--|-----------2---2---0--|
A|--0--2--------2--0------0--|-----0--2------0---2--|
E|-----------0---------------|--0----------------3--|

1st Chorus

e|-----------|-------------------|-----------|----------------------|
B|--------6--|--5--------6p5-----|--------8--|--7--------8p7--------|
G|--2-----5--|--5-----5-------5--|--7-----7--|--7-----7-------7-----|
D|--2-----5--|--5--5-------------|--7-----7--|--7--7-------------7--|
A|--0-----3--|--3----------------|--5-----5--|--5-------------------|
E|-----------|-------------------|-----------|----------------------|

e|-----------|-----------|-----------------------|--0---------|
B|-----------|-----------|-----------------------|--0---------|
G|-----------|-----------|-----------0-----------|--------2---|
D|--2-----2--|-----2-----|--------2--------------|--------2---|
A|--2-----2--|-----2-----|--0--2--------0--------|--------0---|
E|--0-----0--|-----0-----|-----------------3--0--|------------|

e|-----------|-------------------|-----------|----------------------|
B|--------6--|--5--------6p5-----|--------8--|--7--------8p7--------|
G|--5-----5--|--5-----5-------5--|--7-----7--|--7-----7-------7-----|
D|--5-----5--|--5--5-------------|--7-----7--|--7--7-------------7--|
A|--3-----3--|--3----------------|--5-----5--|--5-------------------|
E|-----------|-------------------|-----------|----------------------|

e|--------------2-----------|-----------------|
B|--3--------3-----3--------|-----------------|
G|--4-----4-----------4-----|----2------2-----|
D|--4--4-----------------4--|----2------2-----|
A|--2-----------------------|----0------0-----|
E|--------------------------|-----------------|

End of Chorus into short harmonica solo
  
e|---------------------------|-------------------3---------|
B|---------------------------|-------------------3---------|
G|------------------------2--|---------------2---0---2b----|
D|--------2-----------2---2--|-----------2---2---0---------|
A|--0--2--------2--0------0--|-----0--2------0---2---------|
E|-----------0---------------|--0----------------3---------|

e|---------------------|-------------------3--|
B|---------------------|-------------------3--|
G|--0---------------2--|---------------2---0--|
D|----------2-------2--|-----------2---2---0--|
A|------2-----------0--|-----0--2------0---2--|
E|---------------------|--0----------------3--|

2nd Verse

e|---------------------------|-------------------3--|
B|---------------------------|-------------------3--|
G|------------------------2--|---------------2---0--|
D|--------2-----------2---2--|-----------2---2---0--|
A|--0--2--------2--0------0--|-----0--2------0---2--|
E|-----------0---------------|--0----------------3--|

e|---------------------------|-------------------3--|
B|---------------------------|-------------------3--|
G|------------------------2--|---------------2---0--|
D|--------2-----------2---2--|-----------2---2---0--|
A|--0--2--------2--0------0--|-----0--2------0---2--|
E|-----------0---------------|--0----------------3--|

e|---------------------------|-------------------3--|
B|---------------------------|-------------------3--|
G|------------------------2--|---------------2---0--|
D|--------2-----------2---2--|-----------2---2---0--|
A|--0--2--------2--0------0--|-----0--2------0---2--|
E|-----------0---------------|--0----------------3--|

e|---------------------------|-------------------3--|
B|---------------------------|-------------------3--|
G|------------------------2--|---------------2---0--|
D|--------2-----------2---2--|-----------2---2---0--|
A|--0--2--------2--0------0--|-----0--2------0---2--|
E|-----------0---------------|--0----------------3--|

2nd Chorus

e|-----------|-------------------|-----------|----------------------|
B|--------6--|--5--------6p5-----|--------8--|--7--------8p7--------|
G|--2-----5--|--5-----5-------5--|--7-----7--|--7-----7-------7-----|
D|--2-----5--|--5--5-------------|--7-----7--|--7--7-------------7--|
A|--0-----3--|--3----------------|--5-----5--|--5-------------------|
E|-----------|-------------------|-----------|----------------------|

e|-----------|-----------|-----------------------|--0---------|
B|-----------|-----------|-----------------------|--0---------|
G|-----------|-----------|-----------0-----------|--------2---|
D|--2-----2--|-----2-----|--------2--------------|--------2---|
A|--2-----2--|-----2-----|--0--2--------0--------|--------0---|
E|--0-----0--|-----0-----|-----------------3--0--|------------|

e|-----------|-------------------|-----------|----------------------|
B|--------6--|--5--------6p5-----|--------8--|--7--------8p7--------|
G|--5-----5--|--5-----5-------5--|--7-----7--|--7-----7-------7-----|
D|--5-----5--|--5--5-------------|--7-----7--|--7--7-------------7--|
A|--3-----3--|--3----------------|--5-----5--|--5-------------------|
E|-----------|-------------------|-----------|----------------------|

e|--------------2-----------|-----------|
B|--3--------3-----3--------|-----------|
G|--4-----4-----------4-----|-----2-----|
D|--4--4-----------------4--|-----2-----|
A|--2-----------------------|-----0-----|
E|--------------------------|-----------|

Main Solo

e|--3---------|-----------|----------|----------|-----------|----------------|
B|--3---------|--------6--|--5-------|-------8--|--7-----7--|-------3---3/5--|
G|--0----2----|--5-----5--|--5----5--|--7----7--|--7-----7--|-------2---2/4--|
D|--0----2----|--5-----5--|--5----5--|--7----7--|--7-----7--|---2---0---0/---|
A|--2----0----|--3-----3--|--3----3--|--5----5--|--5-----5--|---2------------|
E|--3---------|-----------|----------|----------|-----------|---0------------|

e|-----------|--------------------------|--0------------|-----------|
B|-----5-----|--------------0-----------|--0------------|--------6--|
G|-----4-----|-----------2--------------|--------2------|--5-----5--|
D|-----------|--------2-----------------|--------2------|--5-----5--|
A|-----------|--0--2-----------0--------|--------0------|--3-----3--|
E|-----------|--------------------3--0--|---------------|-----------|

e|----------|----------|-----------|--------------2-----------|-----------|
B|--5-------|-------8--|--7-----7--|--3--------3-----3--------|-----------|
G|--5----5--|--7----7--|--7-----7--|--4-----4-----------4-----|-----2-----|
D|--5----5--|--7----7--|--7-----7--|--4--4-----------------4--|-----2-----|
A|--3----3--|--5----5--|--5-----5--|--2-----------------------|-----0-----|
E|----------|----------|-----------|--------------------------|-----------|

e|-----3-----|---------------------------|-------------------3--|
B|-----3-----|---------------------------|-------------------3--|
G|-----0-----|------------------------2--|---------------2---0--|
D|-----0-----|--------2-----------2---2--|-----------2---2---0--|
A|-----2-----|--0--2--------2--0------0--|-----0--2------0---2--|
E|-----3-----|-----------0---------------|--0----------------3--|

e|---------------------------|-------------------3--|
B|---------------------------|-------------------3--|
G|------------------------2--|---------------2---0--|
D|--------2-----------2---2--|-----------2---2---0--|
A|--0--2--------2--0------0--|-----0--2------0---2--|
E|-----------0---------------|--0----------------3--|

3rd Verse

e|---------------------------|------------------------|
B|---------------------------|------------------------|
G|------------------------2--|---------------2--------|
D|--------2-----------2---2--|-----------2---2--------|
A|--0--2--------2--0------0--|-----0--2------0--------|
E|-----------0---------------|--0----------------3\/--|

e|---------------------------|-------------------3--|
B|---------------------------|-------------------3--|
G|------------------------2--|---------------2---0--|
D|--------2-----------2---2--|-----------2---2---0--|
A|--0--2--------2--0------0--|-----0--2------0---2--|
E|-----------0---------------|--0----------------3--|

e|---------------------------|-------------------3--|
B|---------------------------|-------------------3--|
G|------------------------2--|---------------2---0--|
D|--------2-----------2---2--|-----------2---2---0--|
A|--0--2--------2--0------0--|-----0--2------0---2--|
E|-----------0---------------|--0----------------3--|


e|---------------------------|-------------------3--|
B|---------------------------|-------------------3--|
G|------------------------2--|---------------2---0--|
D|--------2-----------2---2--|-----------2---2---0--|
A|--0--2--------2--0------0--|-----0--2------0---2--|
E|-----------0---------------|--0----------------3--|

3rd Chorus

e|-----------|-------------------|-----------|----------------------|
B|--------6--|--5--------6p5-----|--------8--|--7--------8p7--------|
G|--2-----5--|--5-----5-------5--|--7-----7--|--7-----7-------7-----|
D|--2-----5--|--5--5-------------|--7-----7--|--7--7-------------7--|
A|--0-----3--|--3----------------|--5-----5--|--5-------------------|
E|-----------|-------------------|-----------|----------------------|

e|-----------|-----------|-----------------------|--0---------|
B|-----------|-----------|-----------------------|--0---------|
G|-----------|-----------|-----------0-----------|--------2---|
D|--2-----2--|-----2-----|--------2--------------|--------2---|
A|--2-----2--|-----2-----|--0--2--------0--------|--------0---|
E|--0-----0--|-----0-----|-----------------3--0--|------------|

e|-----------|-------------------|-----------|----------------------|
B|--------6--|--5--------6p5-----|--------8--|--7--------8p7--------|
G|--5-----5--|--5-----5-------5--|--7-----7--|--7-----7-------7-----|
D|--5-----5--|--5--5-------------|--7-----7--|--7--7-------------7--|
A|--3-----3--|--3----------------|--5-----5--|--5-------------------|
E|-----------|-------------------|-----------|----------------------|

e|----------------|----------------|----------------|-------------------|
B|----------------|----------------|----------------|-------------------|
G|--4-4--4--4--4--|--4-4--4--4--4--|--4-4--4--4--4--|--4-4--4--4--4--4--|
D|--4-4--4--4--4--|--4-4--4--4--4--|--4-4--4--4--4--|--4-4--4--4--4--4--|
A|--0h2--2--2--2--|--0h2--2--2--2--|--0h2--2--2--2--|--0h2--2--2--2--2--|
E|----------------|----------------|----------------|-------------------|

e|-----------|-------------------|-----------|----------------------|
B|--------6--|--5--------6p5-----|--------8--|--7--------8p7--------|
G|--5-----5--|--5-----5-------5--|--7-----7--|--7-----7-------7-----|
D|--5-----5--|--5--5-------------|--7-----7--|--7--7-------------7--|
A|--3-----3--|--3----------------|--5-----5--|--5-------------------|
E|-----------|-------------------|-----------|----------------------|

e|-----------|-----------|-----------------------|--0---------|
B|-----------|-----------|-----------------------|--0---------|
G|-----------|-----------|-----------0-----------|--------2---|
D|--2-----2--|-----2-----|--------2--------------|--------2---|
A|--2-----2--|-----2-----|--0--2--------0--------|--------0---|
E|--0-----0--|-----0-----|-----------------3--0--|------------|

e|-----------|-------------------|-----------|----------------------|
B|--------6--|--5--------6p5-----|--------8--|--7--------8p7--------|
G|--5-----5--|--5-----5-------5--|--7-----7--|--7-----7-------7-----|
D|--5-----5--|--5--5-------------|--7-----7--|--7--7-------------7--|
A|--3-----3--|--3----------------|--5-----5--|--5-------------------|
E|-----------|-------------------|-----------|----------------------|

e|--------------2-----------|-----------|------3-----|
B|--3--------3-----3--------|-----------|------3-----|
G|--4-----4-----------4-----|-----2-----|------0-----|
D|--4--4-----------------4--|-----2-----|------0-----|
A|--2-----------------------|-----0-----|------2-----|
E|--------------------------|-----------|------3-----|

End of Chorus into outro

e|---------------------------|-------------------3--|
B|---------------------------|-------------------3--|
G|------------------------2--|---------------2---0--|
D|--------2-----------2---2--|-----------2---2---0--|
A|--0--2--------2--0------0--|-----0--2------0---2--|
E|-----------0---------------|--0----------------3--|

e|---------------------------|-------------------3--|
B|---------------------------|-------------------3--|
G|------------------------2--|---------------2---0--|
D|--------2-----------2---2--|-----------2---2---0--|
A|--0--2--------2--0------0--|-----0--2------0---2--|
E|-----------0---------------|--0----------------3--|

1st Fill

e|----------------|-----------|-----------12-------------|--------|
B|--15b----15-----|----15b----|-------12-----------------|--------|
G|----------------|-----------|--14b----------14br---12--|--------|
D|----------------|-----------|--------------------------|---14---|
A|----------------|-----------|--------------------------|--------|
E|----------------|-----------|--------------------------|--------|

2nd Fill

* Fast tremolo bar on end note
e|------------|------------|------------------|----------------|
B|-----15b----|-----15b----|---17b-----17br---|-15-----*17-----|
G|------------|------------|------------------|----------------|
D|------------|------------|------------------|----------------|
A|------------|------------|------------------|----------------|
E|------------|------------|------------------|----------------|

Main Solo

e|-----------------|---------|-----------------|----------|--12-------------|
B|--15b--15br--12--|---15b---|--15b--15br--12--|---15br---|-----------------|
G|-----------------|---------|-----------------|----------|------14br---12--|
D|-----------------|---------|-----------------|----------|-----------------|
A|-----------------|---------|-----------------|----------|-----------------|
E|-----------------|---------|-----------------|----------|-----------------|

e|--------|-------------------------------|----------------------------------|
B|--------|-------------------------------|----------------------------------|
G|--------|--12------14------12-----------|-14--12---------------------------|
D|---14---|------14------14-----------14--|---------14--12-------------------|
A|--------|-----------------------14------|-----------------14\12--10--12----|
E|--------|-------------------------------|--------------------------------12|

e|---------------------------12------|----15br----|--15b------------|
B|-----------------------12------12--|------------|-------15br--12--|
G|--------------12--14b--------------|------------|-----------------|
D|------12--14-----------------------|------------|-----------------|
A|--14-------------------------------|------------|-----------------|
E|-----------------------------------|------------|-----------------|

e|-------------15--|--------------|-------------12--|--------------|
B|--15br--15b------|--------------|---------15------|--------------|
G|-----------------|--14br----12--|--14b------------|--14br----12--|
D|-----------------|--------------|-----------------|--------------|
A|-----------------|--------------|-----------------|--------------|
E|-----------------|--------------|-----------------|--------------|

e|------------------|---------------------------|----------|
B|------------------|---------------------------|----------|
G|--14--12----------|------------------------0--|----2b----|
D|----------14--12--|---------------------------|----------|
A|------------------|--14\12--10--12--10--------|----------|
E|------------------|---------------------------|----------|

e|--------------------------------------|-------------------------|
B|--------------------------------------|-------------------------|
G|--2pb+--2pb+--2pb+--2pb+--2pb+--2pb+--|--2pb+--2pb+--2pbr+---0--|
D|--------------------------------------|-------------------------|
A|--------------------------------------|-------------------------|
E|--------------------------------------|-------------------------|

e|-------------------|-----------|-------------|-----------------------------|
B|-------------------|-------3b--|--3---0---3--|--3--0-----------------------|
G|--2b----7t---2pbr--|--0--------|-------------|--------2br--0-----0--2b--7t-|
D|-------------------|-----------|-------------|----------------2------------|
A|-------------------|-----------|-------------|-----------------------------|
E|-------------------|-----------|-------------|-----------------------------|

3rd Fill

e|----17b-----|--17b---17br--|--15--17-------------------|
B|------------|--------------|----------17--/17--15--17--|
G|------------|--------------|---------------------------|
D|------------|--------------|---------------------------|
A|------------|--------------|---------------------------|
E|------------|--------------|---------------------------|

4th Fill

e|--10/12--12--12--12--12\10--10--10--|--10\7--7--7--7\5--5--5--|
B|--10/12--12--12--12--12\10--10--10--|--10\7--7--7--7\5--5--5--|
G|------------------------------------|-------------------------|
D|------------------------------------|-------------------------|
A|------------------------------------|-------------------------|
E|------------------------------------|-------------------------|

e|--5\3--3--3-----------------0--|
B|--5\3--3--3-----------------0--|
G|--------------2br---0----------|
D|-------------------------------|
A|-------------------------------|
E|------------------------0------|

Outro

e|-----------|----------------|-----------|---------------|----------|
B|----15b----|--15br----12----|----15b----|---------------|----------|
G|-----------|----------------|-----------|--14br-----12--|----------|
D|-----------|----------------|-----------|---------------|----14----|
A|-----------|----------------|-----------|---------------|----------|
E|-----------|----------------|-----------|---------------|----------|

************************************

| /   slide up
| \   slide down
| h   hammer-on
| p   pull-off
| ~   vibrato
| +   harmonic
| x   Mute note
| b   Bend
| pb  Pre-bend
| br  Bend release
| pbr Pre-bend release
| brb Bend release bend

************************************
Добавлено: 22.07.2013
Другие материалы по этой песне:

Страница создана 02.07.2013
http://primanota.ru/blackfoot/in-the-night-chords.htm
Привет, Гость.
Предлагаем пройти революционный курс по гитаре.
Подарок от PrimaNota.Ru, забирай!