PrimaNota.ru - самый крупный в мире бесплатный архив песенных текстов, аккордов, табулатур и нот


Blackfoot - I Stand Alone - текст песни, таба, видео

Регистрация Запомнить меня
Войти через:  Facebook Google Twitter Vk Yandex Mail.ru

Blackfoot - I Stand Alone - текст песни, таба, видео

Печатать
Просмотров: 96
-----------------------------------------------------------------------------
                             I Stand Alone- Blackfoot
                              No Reservations - 1975
                         Words and Music by Jakson Spires
-----------------------------------------------------------------------------
Tabbed by: Duane Baldwin
E-mail: duaneandjulie@gmail.com

Tuning: Half step down

All solos at end of tab

Guitar I (Clean tone)

Intro

     Let all notes ring
e|-----------3-----------------------3-----------|
B|--------------3-----------------------3--------|
G|--------0--------0--------------0--------0-----|
D|-----0--------------0--------0--------------0--|
A|-----------------------------------------------|
E|--3--------------------0--2--------------------|

e|-----------------------------0-----------|
B|-----------0--------3-----------3--------|
G|--------0-----0--------0--------------0--|
D|-----2-----------2--------2--------2-----|
A|-----------------------------------------|
E|--0--------------------------------------|

e|---------------------------2--------------|
B|-----------2h3--2h3-----------3--------0--|
G|--------4------------4-----------4--------|
D|-----4------------------4-----------------|
A|--2---------------------------------2-----|
E|------------------------------------------|

e|--------------------------------3p2-----------|
B|-----------3--1--------------3-------3--------|
G|--------0--------0--------2-------------------|
D|-----2--------------2--0----------------------|
A|--3-------------------------------------------|
E|----------------------------------------0--2--|

e|-----------3-----------------------3-----------|
B|--------------3-----------------------3--------|
G|--------0--------0--------------0--------0-----|
D|-----0--------------0--------0--------------0--|
A|-----------------------------------------------|
E|--3--------------------0--2--------------------|

e|-----------------------------0-----------|
B|-----------0--------3-----------3--------|
G|--------0-----0--------0--------------0--|
D|-----2-----------2--------2--------2-----|
A|-----------------------------------------|
E|--0--------------------------------------|

e|---------------------------2--------------|
B|-----------2h3--2h3-----------3--------0--|
G|--------4------------4-----------4--------|
D|-----4------------------4-----------------|
A|--2---------------------------------2-----|
E|------------------------------------------|

e|--------------------------------3p2-----------|
B|-----------3--1--------------3-------3--------|
G|--------0--------0--------2-------------------|
D|-----2--------------2--0----------------------|
A|--3-------------------------------------------|
E|----------------------------------------0--2--|

  Palm mute notes on A and D strings
e|----------------------------------------------------|
B|----------------------------------------------------|
G|-----0--------0--------0-----0--------0-------------|
D|--------0--------0--------------0--------0--3qb--0--|
A|--3--------3--------3-----2--------2----------------|
E|----------------------------------------------------|

   Palm mute notes on G and D strings
e|--------------------------------------------------|
B|--3--------3--------3--------3--------3-----------|
G|-----2--------2--------2--------2--------2--------|
D|--------0--------0--------0--------0--------------|
A|--------------------------------------------0--2--|
E|--------------------------------------------------|

  Palm mute notes on A and D strings
e|-----------------------------------------------------|
B|-----------------------------------------------------|
G|-----0--------0--------0-----0-----------------------|
D|--------0--------0--------------0-----2br--2h3p2--0--|
A|--3--------3--------3-----2--------2-----------------|
E|-----------------------------------------------------|

   Palm mute notes on G and D strings
e|--------------------------------------------------|
B|--3--------3--------3--------3--------3-----------|
G|-----2--------2--------2--------2--------2--------|
D|--------0--------0--------0--------0--------------|
A|--------------------------------------------0--2--|
E|--------------------------------------------------|

  Palm mute notes on A and D strings
e|----------------------------------------------------|
B|----------------------------------------------------|
G|-----0--------0--------0-----0--------0-------------|
D|--------0--------0--------------0--------0--3qb--0--|
A|--3--------3--------3-----2--------2----------------|
E|----------------------------------------------------|

   Palm mute notes on G and D strings
e|--------------------------------------------------|
B|--3--------3--------3--------3--------3-----------|
G|-----2--------2--------2--------2--------2--------|
D|--------0--------0--------0--------0--------------|
A|--------------------------------------------0--2--|
E|--------------------------------------------------|

  Palm mute notes on A and D strings
e|----------------------------------------------------|
B|----------------------------------------------------|
G|-----0--------0--------0-----0--------0-------------|
D|--------0--------0--------------0--------0--3qb--0--|
A|--3--------3--------3-----2--------2----------------|
E|----------------------------------------------------|

   Palm mute notes on G and D strings
e|--------------------------------------------------|
B|--3--------3--------3--------3--------3-----------|
G|-----2--------2--------2--------2--------2--------|
D|--------0--------0--------0--------0--------------|
A|--------------------------------------------0--2--|
E|--------------------------------------------------|

  Palm mute notes on A and D strings
e|---------------------------------------------------|
B|---------------------------------------------------|
G|-----0--------0--------0-----0--------0------------|
D|--------0--------0--------------0--------2h3p2--0--|
A|--3--------3--------3-----2--------2---------------|
E|---------------------------------------------------|

   Palm mute notes on G and D strings
e|--------------------------------------------------|
B|--3--------3--------3--------3--------3-----------|
G|-----2--------2--------2--------2--------2--------|
D|--------0--------0--------0--------0--------------|
A|--------------------------------------------0--2--|
E|--------------------------------------------------|

  Palm mute notes on A and D strings
e|----------------------------------------------------|
B|----------------------------------------------------|
G|-----0--------0--------0-----0--------0-------------|
D|--------0--------0--------------0--------0--3qb--0--|
A|--3--------3--------3-----2--------2----------------|
E|----------------------------------------------------|

e|--------------------------|-------3--------3----------|
B|--3--3--3--3--3--3--3--3--|-------3--------3----------|
G|--2--2--2--2--2--2--2--2--|-------0--------0----------|
D|--0--0--0--0--0--0--0--0--|-------2-------------2h3p2p|
A|--------------------------|--3---------2--------------|
E|--------------------------|---------------------------|

e|---------------------------|-------3--------3----------|
B|------3--3--3--3--3--------|-------3--------3----------|
G|------2--2--2--2--2--------|-------0--------0----------|
D|--0---0--0--0--0--0--------|-------2-------------2h3p2p|
A|---------------------0--2--|--3---------2--------------|
E|---------------------------|---------------------------|

e|----------------------|-------3--------3----------|
B|----3----3----3----3--|-------3--------3----------|
G|--0h2--0h2--0h2--0h2--|-------0--------0----------|
D|--0-0--0-0--0-0--0-0--|-------2-------------2h3p2p|
A|----------------------|--3---------2--------------|
E|----------------------|---------------------------|

e|---------------------------------|-------3--------3----------|
B|------3-------3-------3----------|-------3--------3----------|
G|------2-------2-------2----------|-------0--------0----------|
D|--0---0---0---0---0---0----------|-------2-------------2h3p2p|
A|---------------------------0--2--|--3---------2--------------|
E|---------------------------------|---------------------------|

e|----------------------|
B|-----3------3---------|
G|-----2------2---------|
D|-----0------0---------|
A|----------------------|
E|----------------0--2--|

1st Verse

     Let all notes ring
e|-----------3-----------------------3-----------|
B|--------------3-----------------------3--------|
G|--------0--------0--------------0--------0-----|
D|-----0--------------0--------0--------------0--|
A|-----------------------------------------------|
E|--3--------------------0--2--------------------|

e|-----------------------------0-----------|
B|-----------0--------3-----------3--------|
G|--------0-----0--------0--------------0--|
D|-----2-----------2--------2--------2-----|
A|-----------------------------------------|
E|--0--------------------------------------|

e|---------------------------2--------------|
B|-----------2h3--2h3-----------3--------0--|
G|--------4------------4-----------4--------|
D|-----4------------------4-----------------|
A|--2---------------------------------2-----|
E|------------------------------------------|

e|--------------------------------3p2-----------|
B|-----------3--1--------------3-------3--------|
G|--------0--------0--------2-------------------|
D|-----2--------------2--0----------------------|
A|--3-------------------------------------------|
E|----------------------------------------0--2--|

e|-----------3-----------------------3-----------|
B|--------------3-----------------------3--------|
G|--------0--------0--------------0--------0-----|
D|-----0--------------0--------0--------------0--|
A|-----------------------------------------------|
E|--3--------------------0--2--------------------|

e|-----------------------------0-----------|
B|-----------0--------3-----------3--------|
G|--------0-----0--------0--------------0--|
D|-----2-----------2--------2--------2-----|
A|-----------------------------------------|
E|--0--------------------------------------|

e|---------------------------2--------------|
B|-----------2h3--2h3-----------3--------0--|
G|--------4------------4-----------4--------|
D|-----4------------------4-----------------|
A|--2---------------------------------2-----|
E|------------------------------------------|

e|--------------------------------------------|
B|-----------3--1--------3----3----3----------|
G|--------0--------0-----2----2----2----------|
D|-----2--------------2--0----0----0----------|
A|--3-----------------------------------0--2--|
E|--------------------------------------------|

1st Chorus (Overdriven tone)

e|----------------------------|-----------------|
B|------3----------3----------|-3----3----------|
G|------0----------0----------|-2----2----------|
D|------2----------0----2h3p2p|-0----0----------|
A|--3---3---0--2---2----------|-----------0--2--|
E|----------------------------|-----------------|

e|----------------------------|-----------------|
B|------3----------3----------|-3----3----------|
G|------0----------0----------|-2----2----------|
D|------2----------0----2h3p2p|-0----0----------|
A|--3---3---0--2---2----------|-----------------|
E|----------------------------|-----------0--2--|

2nd Verse (Clean tone)

     Let all notes ring
e|-----------3-----------------------3-----------|
B|--------------3-----------------------3--------|
G|--------0--------0--------------0--------0-----|
D|-----0--------------0--------0--------------0--|
A|-----------------------------------------------|
E|--3--------------------0--2--------------------|

e|-----------------------------0-----------|
B|-----------0--------3-----------3--------|
G|--------0-----0--------0--------------0--|
D|-----2-----------2--------2--------2-----|
A|-----------------------------------------|
E|--0--------------------------------------|

e|---------------------------2--------------|
B|-----------2h3--2h3-----------3--------0--|
G|--------4------------4-----------4--------|
D|-----4------------------4-----------------|
A|--2---------------------------------2-----|
E|------------------------------------------|

e|--------------------------------3p2-----------|
B|-----------3--1--------------3-------3--------|
G|--------0--------0--------2-------------------|
D|-----2--------------2--0----------------------|
A|--3-------------------------------------------|
E|----------------------------------------0--2--|

e|-----------3-----------------------3-----------|
B|--------------3-----------------------3--------|
G|--------0--------0--------------0--------0-----|
D|-----0--------------0--------0--------------0--|
A|-----------------------------------------------|
E|--3--------------------0--2--------------------|

e|-----------------------------0-----------|
B|-----------0--------3-----------3--------|
G|--------0-----0--------0--------------0--|
D|-----2-----------2--------2--------2-----|
A|-----------------------------------------|
E|--0--------------------------------------|

e|---------------------------2--------------|
B|-----------2h3--2h3-----------3--------0--|
G|--------4------------4-----------4--------|
D|-----4------------------4-----------------|
A|--2---------------------------------2-----|
E|------------------------------------------|

e|--------------------------------------|
B|-----------3--1-------------3----3----|
G|--------0--------0----------2----2----|
D|-----2--------------2--0----0----0----|
A|--3-----------------------------------|
E|--------------------------------------|

1st Pre Chorus (Overdriven tone)

e|--0--0----0--0----0--0----0--0--|--2--2----2--2----2----2----2----0---|
B|--0--0----0--0----0--0----0--0--|--3--3----3--3----3----3----3----1---|
G|--0--0----0--0----0--0----0--0--|--4--4----4--4----4----4----4----2---|
D|--2--2----2--2----2--2----2--2--|--4--4----4--4----4----4----4----2---|
A|--2--2----2--2----2--2----2--2--|--2--2----2--2----2----2----2----0---|
E|--0--0----0--0----0--0----0--0--|-------------------------------------|

   Let notes ring in this measure
e|--0-----------------0------------|--2----2----2----2----2--|
B|-----1-----------1-----1---------|--3----3----3----3----3--|
G|--------2-----2-----------2------|--2----2----2----2----2--|
D|-----------2-----------------2---|--0----0----0----0----0--|
A|---------------------------------|-------------------------|
E|---------------------------------|-------------------------|

e|--0--0----0--0----0--0----0--0--|--2--2----2--2----2----2---------|
B|--0--0----0--0----0--0----0--0--|--3--3----3--3----3----3---------|
G|--0--0----0--0----0--0----0--0--|--4--4----4--4----4----4---------|
D|--2--2----2--2----2--2----2--2--|--4--4----4--4----4----4----2----|
A|--2--2----2--2----2--2----2--2--|--2--2----2--2----2----2----3----|
E|--0--0----0--0----0--0----0--0--|---------------------------------|



  Let single notes ring
e|------------------|--2--------------------|
B|--1--1-----1--1---|--3--3--3-----3--3--3--|
G|--0-----0-----0---|--2--------2-----2--2--|
D|--2-----------2---|--0--------------------|
A|------------------|-----------------------|
E|------------------|-----------------------|


  Galloping rhythm Palm muted 
e|-----------------------------------------------------------|
B|-----------------------------------------------------------|
G|-----------------------------------------------------------|
D|--2--2--2--2--2--2--2--2--2--2--2--2--2--2--2--2--2--2--2--|
A|--2--2--2--2--2--2--2--2--2--2--2--2--2--2--2--2--2--2--2--|
E|--0--0--0--0--0--0--0--0--0--0--0--0--0--0--0--0--0--0--0--|

e|---------------------------------------------------------------------------|
B|---------------------------------------------------------------13b---------|
G|-----7--10b--10b--9p7-----10b--10b--9p7-----10b--10b--9p7------------------|
D|--9--------------------9-----------------9-----------------9---------------|
A|---------------------------------------------------------------------0--2--|
E|---------------------------------------------------------------------------|
2nd Chorus

e|-----------------------------|-2----2----2----2----2--|
B|------3----------3-----------|-3----3----3----3----3--|
G|------0----------0-----------|-2----2----2----2----2--|
D|------0----------0----2h3p2--|-0----0----0----0----0--|
A|--3-------0--2---------------|------------------------|
E|-----------------------------|------------------------|

e|-----------------------------|-----------------|
B|------3----------3-----------|-3----3----------|
G|------0----------0-----------|-2----2----------|
D|------0----------0----2h3p2--|-0----0----------|
A|--3-------0--2---------------|-----------------|
E|-----------------------------|-----------0--2--|

3rd Verse (Clean tone)

    Let all notes ring
e|-----------3-----------------------3-----------|
B|--------------3-----------------------3--------|
G|--------0--------0--------------0--------0-----|
D|-----0--------------0--------0--------------0--|
A|-----------------------------------------------|
E|--3--------------------0--2--------------------|

e|-----------------------------0-----------|
B|-----------0--------3-----------3--------|
G|--------0-----0--------0--------------0--|
D|-----2-----------2--------2--------2-----|
A|-----------------------------------------|
E|--0--------------------------------------|

e|---------------------------2--------------|
B|-----------2h3--2h3-----------3--------0--|
G|--------4------------4-----------4--------|
D|-----4------------------4-----------------|
A|--2---------------------------------2-----|
E|------------------------------------------|

e|--------------------------------3p2-----------|
B|-----------3--1--------------3-------3--------|
G|--------0--------0--------2-------------------|
D|-----2--------------2--0----------------------|
A|--3-------------------------------------------|
E|----------------------------------------0--2--|

e|-----------3-----------------------3-----------|
B|--------------3-----------------------3--------|
G|--------0--------0--------------0--------0-----|
D|-----0--------------0--------0--------------0--|
A|-----------------------------------------------|
E|--3--------------------0--2--------------------|

e|-----------------------------0-----------|
B|-----------0--------3-----------3--------|
G|--------0-----0--------0--------------0--|
D|-----2-----------2--------2--------2-----|
A|-----------------------------------------|
E|--0--------------------------------------|

e|---------------------------2--------------|
B|-----------2h3--2h3-----------3--------0--|
G|--------4------------4-----------4--------|
D|-----4------------------4-----------------|
A|--2---------------------------------2-----|
E|------------------------------------------|

e|--------------------------------------|
B|-----------3--1-------------3----3----|
G|--------0--------0----------2----2----|
D|-----2--------------2--0----0----0----|
A|--3-----------------------------------|
E|--------------------------------------|

2nd Pre Chorus (Overdriven tone)

e|--0--0----0--0----0--0----0--0--|--2--2----2--2----2----2----2----0---|
B|--0--0----0--0----0--0----0--0--|--3--3----3--3----3----3----3----1---|
G|--0--0----0--0----0--0----0--0--|--4--4----4--4----4----4----4----2---|
D|--2--2----2--2----2--2----2--2--|--4--4----4--4----4----4----4----2---|
A|--2--2----2--2----2--2----2--2--|--2--2----2--2----2----2----2----0---|
E|--0--0----0--0----0--0----0--0--|-------------------------------------|


   Let notes ring in this measure
e|--0-----------------0------------|--2----2----2----2----2--|
B|-----1-----------1-----1---------|--3----3----3----3----3--|
G|--------2-----2-----------2------|--2----2----2----2----2--|
D|-----------2-----------------2---|--0----0----0----0----0--|
A|---------------------------------|-------------------------|
E|---------------------------------|-------------------------|


e|--0--0----0--0----0--0----0--0--|--2--2----2--2----2----2---------|
B|--0--0----0--0----0--0----0--0--|--3--3----3--3----3----3---------|
G|--0--0----0--0----0--0----0--0--|--4--4----4--4----4----4---------|
D|--2--2----2--2----2--2----2--2--|--4--4----4--4----4----4----2----|
A|--2--2----2--2----2--2----2--2--|--2--2----2--2----2----2----3----|
E|--0--0----0--0----0--0----0--0--|---------------------------------|

  Let single notes ring
e|------------------|--2--------------------|
B|--1--1-----1--1---|--3--3--3-----3--3--3--|
G|--0-----0-----0---|--2--------2-----2--2--|
D|--2-----------2---|--0--------------------|
A|------------------|-----------------------|
E|------------------|-----------------------|

  Galloping rhythm Palm muted 
e|-----------------------------------------------------------|
B|-----------------------------------------------------------|
G|-----------------------------------------------------------|
D|--------------------------------------------------------2--|
A|--2--2--2--2--2--2--2--2--2--2--2--2--2--2--2--2--2--2--2--|
E|--0--0--0--0--0--0--0--0--0--0--0--0--0--0--0--0--0--0--0--|

e|--------------------------------------------------------------------|
B|-----3--6b--6b--6p3-----5-----3--5--------------------3-------------|
G|--4------------------4-----4--------4p2p0-----2-------2-------------|
D|-------------------------------------------5-----2----0-------------|
A|--------------------------------------------------------------0--2--|
E|--------------------------------------------------------------------|

3rd Chorus

e|----------------------------|-----------------|----------------------------|
B|------3----------3----------|-3----3----------|------3----------3----------|
G|------0----------0----------|-2----2----------|------0----------0----------|
D|------2----------0----2h3p2p|-0----0----------|------2----------0----2h3p2p|
A|--3-------0--2--------------|-----------0--2--|--3-------0--2--------------|
E|----------------------------|-----------------|----------------------------|

e|----------------------|----------------------------|----------------------|
B|----3----3----3----3--|-------3---------3----------|----3----3----3----3--|
G|--0h2--0h2--0h2--0h2--|-------0---------0----------|--0h2--0h2--0h2--0h2--|
D|--0-0--0-0--0-0--0-0--|-------2--------------2h3p2p|--0-0--0-0--0-0--0-0--|
A|----------------------|--3-------0--2--------------|----------------------|
E|----------------------|----------------------------|----------------------|

e|----------------------------|
B|-------3---------3----------|
G|-------0---------0----------|
D|-------2--------------2h3p2p|
A|--3-------0--2--------------|
E|----------------------------|

Outro Solo
e|-----------|-----------|-----------|---------------|-----------------------|
B|-----------|-----------|-----------|---------------|-----------------------|
G|-----7-----|----10-----|-----12----|--3----5----7--|--7--10--9--7-------5--|
D|-----7-----|----10-----|-----12----|--3----5----7--|--7--10--9--7-------5--|
A|-----5-----|----8------|-----10----|--1----3----5--|--5--8---7--5----0--3--|
E|-----------|-----------|-----------|---------------|-----------------------|

e|--------------------------|---------------------------|
B|--------------------------|---------------------------|
G|--7--7-------7--5--7--10--|--10--------10--9--10--12--|
D|--7--7-------7--5--7--10--|--10--------10--9--10--12--|
A|--5--5-------5--3--5--8---|--8---------8---7--8---10--|
E|--------------------------|---------------------------|

e|---------------------|-----------------------|--------------------------|
B|---------------------|-----------------------|--------------------------|
G|--12--------3--5--7--|--7--10--9--7-------5--|--7--7--7--7--7--7--7--9--|
D|--12--------3--5--7--|--7--10--9--7-------5--|--7--7--7--7--7--7--7--9--|
A|--10--------1--3--5--|--5--8---7--5----0--3--|--5--5--5--5--5--5--5--7--|
E|---------------------|-----------------------|--------------------------|

e|----------------------------------|-------------------------------------|
B|----------------------------------|-------------------------------------|
G|--10--10--10--10--10--10--10--11--|--12--12--12--12--12--12----3--5--7--|
D|--10--10--10--10--10--10--10--11--|--12--12--12--12--12--12----3--5--7--|
A|--8---8---8---8---8---8---8---9---|--10--10--10--10--10--10----1--3--5--|
E|----------------------------------|-------------------------------------|

e|-----------------------|--------------------------|
B|-----------------------|--------------------------|
G|--7--10--9--7-------5--|--7--7--7--7--7--7--7--9--|
D|--7--10--9--7-------5--|--7--7--7--7--7--7--7--9--|
A|--5--8---7--5----0--3--|--5--5--5--5--5--5--5--7--|
E|-----------------------|--------------------------|

e|----------------------------------|-------------------------------------|
B|----------------------------------|-------------------------------------|
G|--10--10--10--10--10--10--10--11--|--12--12--12--12--12--12----3--5--7--|
D|--10--10--10--10--10--10--10--11--|--12--12--12--12--12--12----3--5--7--|
A|--8---8---8---8---8---8---8---9---|--10--10--10--10--10--10----1--3--5--|
E|----------------------------------|-------------------------------------|

e|-----------------------|--------------------------|
B|-----------------------|--------------------------|
G|--7--10--9--7-------5--|--7--7--7--7--7--7--7--9--|
D|--7--10--9--7-------5--|--7--7--7--7--7--7--7--9--|
A|--5--8---7--5----0--3--|--5--5--5--5--5--5--5--7--|
E|-----------------------|--------------------------|

e|----------------------------------|-------------------------------------|
B|----------------------------------|-------------------------------------|
G|--10--10--10--10--10--10--10--11--|--12--12--12--12--12--12----3--5--7--|
D|--10--10--10--10--10--10--10--11--|--12--12--12--12--12--12----3--5--7--|
A|--8---8---8---8---8---8---8---9---|--10--10--10--10--10--10----1--3--5--|
E|----------------------------------|-------------------------------------|

e|-----------------------|--------------------------|
B|-----------------------|--------------------------|
G|--7--10--9--7-------5--|--7--7-------7--5--7--10--|
D|--7--10--9--7-------5--|--7--7-------7--5--7--10--|
A|--5--8---7--5----0--3--|--5--5-------5--3--5--8---|
E|-----------------------|--------------------------|

e|---------------------------|---------------------|-----------------------|
B|---------------------------|---------------------|-----------------------|
G|--10--------10--9--10--12--|--12--------3--5--7--|--7--10--9--7-------5--|
D|--10--------10--9--10--12--|--12--------3--5--7--|--7--10--9--7-------5--|
A|--8---------8---7--8---10--|--10--------1--3--5--|--5--8---7--5----0--3--|
E|---------------------------|---------------------|-----------------------|

e|--------------------------|----------------------------------|
B|--------------------------|----------------------------------|
G|--7--7--7--7--7--7--7--9--|--10--10--10--10--10--10--10--11--|
D|--7--7--7--7--7--7--7--9--|--10--10--10--10--10--10--10--11--|
A|--5--5--5--5--5--5--5--7--|--8---8---8---8---8---8---8---9---|
E|--------------------------|----------------------------------|

e|-------------------------------------|-----------------------|
B|-------------------------------------|-----------------------|
G|--12--12--12--12--12--12----3--5--7--|--7--10--9--7-------5--|
D|--12--12--12--12--12--12----3--5--7--|--7--10--9--7-------5--|
A|--10--10--10--10--10--10----1--3--5--|--5--8---7--5----0--3--|
E|-------------------------------------|-----------------------|

e|--------------------------|----------------------------------|
B|--------------------------|----------------------------------|
G|--7--7--7--7--7--7--7--9--|--10--10--10--10--10--10--10--11--|
D|--7--7--7--7--7--7--7--9--|--10--10--10--10--10--10--10--11--|
A|--5--5--5--5--5--5--5--7--|--8---8---8---8---8---8---8---9---|
E|--------------------------|----------------------------------|

e|-------------------------------------|-----------------------|
B|-------------------------------------|-----------------------|
G|--12--12--12--12--12--12----3--5--7--|--7--10--9--7-------5--|
D|--12--12--12--12--12--12----3--5--7--|--7--10--9--7-------5--|
A|--10--10--10--10--10--10----1--3--5--|--5--8---7--5----0--3--|
E|-------------------------------------|-----------------------|

e|--------------------------|----------------------------------|
B|--------------------------|----------------------------------|
G|--7--7--7--7--7--7--7--9--|--10--10--10--10--10--10--10--11--|
D|--7--7--7--7--7--7--7--9--|--10--10--10--10--10--10--10--11--|
A|--5--5--5--5--5--5--5--7--|--8---8---8---8---8---8---8---9---|
E|--------------------------|----------------------------------|

e|-------------------------------------|-----------------------|
B|-------------------------------------|-----------------------|
G|--12--12--12--12--12--12----3--5--7--|--7--10--9--7-------5--|
D|--12--12--12--12--12--12----3--5--7--|--7--10--9--7-------5--|
A|--10--10--10--10--10--10----1--3--5--|--5--8---7--5----0--3--|
E|-------------------------------------|-----------------------|

e|--------------------------|----------------------------------|
B|--------------------------|----------------------------------|
G|--7--7--7--7--7--7--7--9--|--10--10--10--10--10--10--10--11--|
D|--7--7--7--7--7--7--7--9--|--10--10--10--10--10--10--10--11--|
A|--5--5--5--5--5--5--5--7--|--8---8---8---8---8---8---8---9---|
E|--------------------------|----------------------------------|

e|-------------------------------------|-----------------------|
B|-------------------------------------|-----------------------|
G|--12--12--12--12--12--12----3--5--7--|--7--10--9--7-------5--|
D|--12--12--12--12--12--12----3--5--7--|--7--10--9--7-------5--|
A|--10--10--10--10--10--10----1--3--5--|--5--8---7--5----0--3--|
E|-------------------------------------|-----------------------|

e|--------------------------|----------------------------------|
B|--------------------------|----------------------------------|
G|--7--7--7--7--7--7--7--9--|--10--10--10--10--10--10--10--11--|
D|--7--7--7--7--7--7--7--9--|--10--10--10--10--10--10--10--11--|
A|--5--5--5--5--5--5--5--7--|--8---8---8---8---8---8---8---9---|
E|--------------------------|----------------------------------|

e|-------------------------------------|---------------------------|
B|-------------------------------------|---------------------------|
G|--12--12--12--12--12--12----3--5--7--|--7--10--9--7--7--3--5--7--|
D|--12--12--12--12--12--12----3--5--7--|--7--10--9--7--7--3--5--7--|
A|--10--10--10--10--10--10----1--3--5--|--5--8---7--5--5--1--3--5--|
E|-------------------------------------|---------------------------|

e|----------------------|-----------------|----------------|
B|----------------------|-----------------|----------------|
G|--7---10---9--7--7----|-----3-------3---|-----5-------5--|
D|--7---10---9--7--7----|-----3-------3---|-----5-------5--|
A|--5---8----7--5--5----|-----1-------1---|-----3-------3--|
E|----------------------|-----\-----------|-----\----------|
                              \                 \

e|----------------------------------|----------------------------------|
B|----------------------------------|----------------------------------|
G|--7\------5----5----5----5----7\--|--7\------5----5----5----5----7\--|
D|--7\------5----5----5----5----7\--|--7\------5----5----5----5----7\--|
A|--5\----0h3----3----3----3----5\--|--5\----0h3----3----3----3----5\--|
E|----------------------------------|----------------------------------|

e|---------|----------|---------|---------|---------|---------|---------|
B|---------|----------|---------|---------|---------|---------|---------|
G|----7----|----10----|----9----|----8----|----7----|----7----|----7\---|
D|----7----|----10----|----9----|----8----|----7----|----7----|----7\---|
A|----5----|----8-----|----7----|----6----|----5----|----5----|----5\---|
E|----\----|----\-----|----\----|----\----|----\----|---------|---------|
      \         \          \         \         \


Guitar II (Overdriven tone)

Intro
e|-----------------|-----------------|-----------------|-----------------|
B|-----------------|-----------------|-----------------|-----------------|
G|-----------------|-----------------|-----------------|-----------------|
D|-----------------|-----------------|-----------------|-----------------|
A|-----------------|-----------------|-----------------|-----------------|
E|-----------------|-----------------|-----------------|-----------0--2--|

e|--------------|-------------|------------|-----------------------3--2------|
B|--------------|-------------|------------|--------3-----------3------------|
G|--------------|-------------|------------|-----0-----0-----2---------------|
D|--------------|-------------|------------|--------------0------------------|
A|--------------|---------0---|--2------2--|--3--------------------------0--2|
E|--3-----0h2---|--0----------|------------|---------------------------------|

  Palm mute notes on A and D strings
e|----------------------------------------------------|
B|----------------------------------------------------|
G|-----0--------0--------0-----0--------0-------------|
D|--------0--------0--------------0--------0--3qb--0--|
A|--3--------3--------3-----2--------2----------------|
E|----------------------------------------------------|

   Palm mute notes on G and D strings
e|--------------------------------------------------|
B|--3--------3--------3--------3--------3-----------|
G|-----2--------2--------2--------2--------2--------|
D|--------0--------0--------0--------0--------------|
A|--------------------------------------------0--2--|
E|--------------------------------------------------|

  Palm mute notes on A and D strings
e|-----------------------------------------------------|
B|-----------------------------------------------------|
G|-----0--------0--------0-----0--------0--------------|
D|--------0--------0--------------0----------2h3p2--0--|
A|--3--------3--------3-----2--------2-----------------|
E|-----------------------------------------------------|

   Palm mute notes on G and D strings
e|--------------------------------------------------|
B|--3--------3--------3--------3--------3-----------|
G|-----2--------2--------2--------2--------2--------|
D|--------0--------0--------0--------0--------------|
A|--------------------------------------------0--2--|
E|--------------------------------------------------|

  Palm mute notes on A and D strings
e|----------------------------------------------------|
B|----------------------------------------------------|
G|-----0--------0--------0-----0--------0-------------|
D|--------0--------0--------------0--------0--3qb--0--|
A|--3--------3--------3-----2--------2----------------|
E|----------------------------------------------------|

   Palm mute notes on G and D strings
e|--------------------------------------------------|
B|--3--------3--------3--------3--------3-----------|
G|-----2--------2--------2--------2--------2--------|
D|--------0--------0--------0--------0--------------|
A|--------------------------------------------0--2--|
E|--------------------------------------------------|

  Palm mute notes on A and D strings
e|----------------------------------------------------|
B|----------------------------------------------------|
G|-----0--------0--------0-----0--------0-------------|
D|--------0--------0--------------0--------0--3qb--0--|
A|--3--------3--------3-----2--------2----------------|
E|----------------------------------------------------|

   Palm mute notes on G and D strings
e|--------------------------------------------------|
B|--3--------3--------3--------3--------3-----------|
G|-----2--------2--------2--------2--------2--------|
D|--------0--------0--------0--------0--------------|
A|--------------------------------------------0--2--|
E|--------------------------------------------------|

  Palm mute notes on A and D strings
e|---------------------------------------------------|
B|---------------------------------------------------|
G|-----0--------0--------0-----0--------0------------|
D|--------0--------0--------------0--------2h3p2--0--|
A|--3--------3--------3-----2--------2---------------|
E|---------------------------------------------------|

   Palm mute notes on G and D strings
e|--------------------------------------------------|
B|--3--------3--------3--------3--------3-----------|
G|-----2--------2--------2--------2--------2--------|
D|--------0--------0--------0--------0--------------|
A|--------------------------------------------0--2--|
E|--------------------------------------------------|

  Palm mute notes on A and D strings
e|----------------------------------------------------|
B|----------------------------------------------------|
G|-----0--------0--------0-----0--------0-------------|
D|--------0--------0--------------0--------0--3qb--0--|
A|--3--------3--------3-----2--------2----------------|
E|----------------------------------------------------|

e|--------------------------|---------------------------|
B|--3--3--3--3--3--3--------|---------------------------|
G|--2--2--2--2--2--2--------|-------0--------0----------|
D|--0--0--0--0--0--0--------|---------------------2h3p2p|
A|--------------------0--2--|--3-------0--2-------------|
E|--------------------------|---------------------------|

e|---------------------------|---------------------------|
B|------3--3--3--3--3--------|---------------------------|
G|------2--2--2--2--2--------|-------0--------0----------|
D|--0---0--0--0--0--0--------|---------------------2h3p2p|
A|---------------------0--2--|--3-------0--2-------------|
E|---------------------------|---------------------------|

e|----------------------|---------------------------|
B|----3----3----3----3--|---------------------------|
G|--0h2--0h2--0h2--0h2--|-------0--------0----------|
D|--0-0--0-0--0-0--0-0--|---------------------2h3p2p|
A|----------------------|--3-------0--2-------------|
E|----------------------|---------------------------|

e|---------------------------------|---------------------------|
B|------3-------3-------3----------|---------------------------|
G|------2-------2-------2----------|-------0--------0----------|
D|--0---0---0---0---0---0----------|---------------------2h3p2p|
A|---------------------------0--2--|--3-------0--2-------------|
E|---------------------------------|---------------------------|

e|----------------------|
B|-----3------3---------|
G|-----2------2---------|
D|-----0------0---------|
A|----------------------|
E|----------------0--2--|

1st Verse (Clean tone)

  Let notes ring
e|-----3---------------3--------|-----------------0--------|
B|--------3---------------3-----|-----3--------3-----3-----|
G|-----------0---------------0--|--------0--------------0--|
D|------------------------------|-----------2--------------|
A|------------------------------|--------------------------|
E|--3------------0--2-----------|--0-----------------------|

e|---------------------------2-------|-------------------------------3--2----|
B|-----------2h3--2h3-----------3----|----------1--3--1-----------3----------|
G|--------4------------4-----------4-|-------0-----------0-----2-------------|
D|-----4------------------4----------|----2-----------------0----------------|
A|--2--------------------------------|-3----------------------------------0-2|
E|-----------------------------------|---------------------------------------|

e|-----3---------------3--------|-----------------0--------|
B|--------3---------------3-----|-----3--------3-----3-----|
G|-----------0---------------0--|--------0--------------0--|
D|------------------------------|-----------2--------------|
A|------------------------------|--------------------------|
E|--3------------0--2-----------|--0-----------------------|

e|---------------------------2-------|------------------------2-----2--------|
B|-----------2h3--2h3-----------3----|----------1--3--1-------3-----3--------|
G|--------4------------4-----------4-|-------0-----------0----2-----2--------|
D|-----4------------------4----------|----2-------------------0-----0--------|
A|--2--------------------------------|-3--------------------------------0--2-|
E|-----------------------------------|---------------------------------------|

1st Chorus (Over driven tone)

e|---------------------------|-----------3--2--3--3---------|
B|---------------------------|-3----3----3--3--3--3---------|
G|-------0--------0----------|-2----2----2--2--2--2---------|
D|---------------------2h3p2p|-0----0-----------------------|
A|--3-------0--2-------------|------------------------0--2--|
E|---------------------------|------------------------------|

e|---------------------------|-----------3----|
B|---------------------------|-3----3---------|
G|-------0--------0----------|-2----2---------|
D|---------------------2h3p2p|-0----0---------|
A|--3-------0--2-------------|----------------|
E|---------------------------|----------------|

2nd Verse   (Clean Tone)

  Let notes ring
e|-----3---------------3--------|---------------0--------0--------------|
B|--------3---------------3-----|------------3-----3--0-----3-----------|
G|-----------0---------------0--|--------0---------------------0--------|
D|------------------------------|-----2---------------------------2-----|
A|------------------------------|------------------------------------0--|
E|--3------------0--2-----------|--0------------------------------------|

e|-----------------2--------2--------------|
B|-----------2--3-----3--------3-----------|
G|--------4--------------4--------4--------|
D|-----4-----------------------------4-----|
A|--2-----------------------------------0--|
E|-----------------------------------------|

e|----------------------------3--2--3--------|
B|----------1--3--1--------3-----------------|
G|-------0--------------2--------------------|
D|-----2-------------0-----------------------|
A|--3----------------------------------0--2--|
E|-------------------------------------------|

e|-----3---------------3--------|----------------0-----------|
B|--------3---------------3-----|-----3---0---3-----3--------|
G|-----------0---------------0--|-----0---0---0--------0--2--|
D|------------------------------|-----2---2---2--------------|
A|------------------------------|----------------------------|
E|--3------------0--2-----------|--0-------------------------|

e|---------------------2--------------|----------------------------------|
B|-------------3--2h3-----3-----------|--------1--3--1-----------3----3--|
G|----------4----------------4--------|-----0-----------0-----2-------2--|
D|-------4----------------------4-----|--------------------0----------0--|
A|--0h2-------------------------------|--3-------------------------------|
E|------------------------------------|----------------------------------|

1st Pre Chorus (Overdriven tone)

e|--0--0----0--0----0--0----0--0--|--2--2----2--2----2--------5---|
B|--0--0----0--0----0--0----0--0--|--3--3----3--3----3--------5---|
G|--0--0----0--0----0--0----0--0--|--4--4----4--4----4--------5---|
D|--2--2----2--2----2--2----2--2--|--4--4----4--4----4--------7---|
A|--2--2----2--2----2--2----2--2--|--2--2----2--2----2--------7---|
E|--0--0----0--0----0--0----0--0--|---------------------------5---|

   Let notes ring in this measure
e|--5-----------------5------------|-----------------------------------|
B|-----5-----------5----------5----|--7---------8----7----8----8----7--|
G|--------5-----5------------------|--7----7----7----7----7----7----7--|
D|-----------7------------7--------|--7------------------------7----7--|
A|---------------------------------|--5-----------------------------5--|
E|---------------------------------|-----------------------------------|

e|--0--0----0--0----0--0----0--0--|--2--2----2--2----2-----------|
B|--0--0----0--0----0--0----0--0--|--3--3----3--3----3------1----|
G|--0--0----0--0----0--0----0--0--|--4--4----4--4----4------0----|
D|--2--2----2--2----2--2----2--2--|--4--4----4--4----4------2----|
A|--2--2----2--2----2--2----2--2--|--2--2----2--2----2------3----|
E|--0--0----0--0----0--0----0--0--|------------------------------|

e|--------------------------|--2----2----2----2----2----2--|
B|--1----1----1----1----1---|--3----3----3----3----3----3--|
G|--0----0----0----0----0---|--2----2----2----2----2----2--|
D|--2----2----2----2----2---|--0----0----0----0----0----0--|
A|--3----3----3----3----3---|------------------------------|
E|--------------------------|------------------------------|

  Galloping rhythm Palm muted 
e|-----------------------------------------------------------|
B|-----------------------------------------------------------|
G|-----------------------------------------------------------|
D|-----------------------------------------------------------|
A|--2--2--2--2--2--2--2--2--2--2--2--2--2--2--2--2--2--2--2--|
E|--0--0--0--0--0--0--0--0--0--0--0--0--0--0--0--0--0--0--0--|

e|---------------------------------------------------------------------------|
B|-----8--10b--10b--10p8-----10b--10b--10p8-----10b--10b--10p8-----10b-------|
G|--9---------------------9------------------9------------------9------------|
D|---------------------------------------------------------------------------|
A|----------------------------------------------------------------------0--2-|
E|---------------------------------------------------------------------------|

2nd Chorus

e|----------------------------------------|----------------3--2--0--2--------|
B|----------------------------------------|----3-----3-----------3-----------|
G|-------0-----0--0--------0-----0--------|-------2-----2--------------------|
D|----------------------------------2h3p2p|-0--------------------------------|
A|--3-------3--------0--2-----2-----------|----------------------------0--2--|
E|----------------------------------------|----------------------------------|

e|----------------------------------------|-----------3----|
B|----------------------------------------|-3----3---------|
G|-------0-----0--0--------0-----0--------|-2----2---------|
D|----------------------------------2h3p2p|-0----0---------|
A|--3-------3--------0--2-----2-----------|----------------|
E|----------------------------------------|----------------|

3rd Verse (Clean Tone

  Let notes ring
e|-----3---------------3--------|---------------0--------------|
B|--------3---------------3-----|-----3--3--0------3-----------|
G|-----------0---------------0--|-----0---------------0--------|
D|------------------------------|-----2------------------2-----|
A|------------------------------|---------------------------0--|
E|--3------------0--2-----------|--0----------------------------|

e|----------------2--------2---------------|
B|-----------2h3-----3--------3------------|
G|--------4-------------4--------4---------|
D|-----4-----------------------------4-----|
A|--2-----------------------------------0--|
E|-----------------------------------------|

e|-------------------------3--2--3--------|
B|----------3--1--------3-----------------|
G|-------0-----------2--------------------|
D|-----2----------0-----------------------|
A|--3-------------------------------------|
E|----------------------------------0--2--|

e|-----3---------------3--------|--------------0--------------|
B|--------3---------------3-----|-----3--3--0-----3-----------|
G|-----------0---------------0--|--------------------0-----0--|
D|------------------------------|-----------------------2-----|
A|------------------------------|--2--------------------------|
E|--3------------0--2-----------|--0--------------------------|

e|------------------2-----------|----------------------------------------|
B|----------3--2h3-----3--------|--------1--3--1------3---3---3---3---3--|
G|-------4----------------4-----|-----0-----------0---2---2---2---2---2--|
D|----4----------------------4--|---------------------0---0---0---0---0--|
A|--0h2-------------------------|--3-------------------------------------|
E|------------------------------|----------------------------------------|

2nd Pre chorus (Over driven tone)

e|--0--0----0--0----0--0----0--0--|--2--2----2--2----2--------5---|
B|--0--0----0--0----0--0----0--0--|--3--3----3--3----3--------5---|
G|--0--0----0--0----0--0----0--0--|--4--4----4--4----4--------5---|
D|--2--2----2--2----2--2----2--2--|--4--4----4--4----4--------7---|
A|--2--2----2--2----2--2----2--2--|--2--2----2--2----2--------7---|
E|--0--0----0--0----0--0----0--0--|---------------------------5---|


   Let notes ring in this measure
e|--5-----------------5------------|-----------------------------------|
B|-----5-----------5----------5----|--7---------8----7----8----8----7--|
G|--------5-----5------------------|--7----7----7----7----7----7----7--|
D|-----------7------------7--------|--7------------------------7----7--|
A|---------------------------------|--5-----------------------------5--|
E|---------------------------------|-----------------------------------|

e|--0--0----0--0----0--0----0--0--|--2--2----2--2----2-----------|
B|--0--0----0--0----0--0----0--0--|--3--3----3--3----3------1----|
G|--0--0----0--0----0--0----0--0--|--4--4----4--4----4------0----|
D|--2--2----2--2----2--2----2--2--|--4--4----4--4----4------2----|
A|--2--2----2--2----2--2----2--2--|--2--2----2--2----2------3----|
E|--0--0----0--0----0--0----0--0--|------------------------------|

e|--------------------------|--2----2----2----2----2----2--|
B|--1----1----1----1----1---|--3----3----3----3----3----3--|
G|--0----0----0----0----0---|--2----2----2----2----2----2--|
D|--2----2----2----2----2---|--0----0----0----0----0----0--|
A|--3----3----3----3----3---|------------------------------|
E|--------------------------|------------------------------|

Galloping rhythm Palm muted 
e|-----------------------------------------------------------|
B|-----------------------------------------------------------|
G|-----------------------------------------------------------|
D|--------------------------------------------------------2--|
A|--2--2--2--2--2--2--2--2--2--2--2--2--2--2--2--2--2--2--2--|
E|--0--0--0--0--0--0--0--0--0--0--0--0--0--0--0--0--0--0--0--|

e|--------------------------------------------------------------------------|
B|-----8--10b--10b--10p8-----10-----8--10--10b----------------7-------------|
G|--9---------------------9------9--------------9p7-----9-----7-------------|
D|---------------------------------------------------9--------7-------------|
A|--------------------------------------------------------------------0--2--|
E|--------------------------------------------------------------------------|

3rd Chorus

e|----------------------------------|----------3--2--0--2---------|
B|-----3----3--------3-----3--------|-3--3-----3--3--3--3---------|
G|-------0-----0--------0-----------|-2--2-----2--2--2--2---------|
D|----------------------------2h3p2p|-0--0------------------------|
A|--3-------------2-----2-----------|-----------------------0--2--|
E|----------------------------------|-----------------------------|

e|----------------------------------|----------------------------|
B|-----3----3--------3-----3--------|---3------3------3------3---|
G|-------0-----0--------0-----------|-0h2----0h2----0h2----0h2---|
D|----------------------------2h3p2p|-0-0----0-0----0-0----0-0---|
A|--3-------------2-----2-----------|----------------------------|
E|----------------------------------|----------------------------|

e|----------------------------------|----------------------------|
B|-----3----3--------3-----3--------|---3------3------3------3---|
G|-------0-----0--------0-----------|-0h2----0h2----0h2----0h2---|
D|----------------------------2h3p2p|-0-0----0-0----0-0----0-0---|
A|--3-------------2-----2-----------|----------------------------|
E|----------------------------------|----------------------------|

Outro

  Palm mute
e|----------------------------|--------------------------------------|
B|----------------------------|--------------------------------------|
G|--7--7--7--7--7--7--7--7/9--|--10--10--10--10--10--10--10--10/11---|
D|--7--7--7--7--7--7--7--7/9--|--10--10--10--10--10--10--10--10/11---|
A|--5--5--5--5--5--5--5--5/7--|--8---8---8---8---8---8---8---8/9-----|
E|----------------------------|--------------------------------------|

e|---------------------------------------|
B|---------------------------------------|
G|--12--12--12--12--12--12--12--3--5--7--|
D|--12--12--12--12--12--12--12--3--5--7--|
A|--10--10--10--10--10--10--10--1--3--5--|
E|---------------------------------------|

* (reference Guitar I at asterisk for rest of outro


Intro Solo (Overdriven tone)

e|-------------12--------|--12------------------------------------|
B|---------15------------|------15--------------------------------|
G|--14brb----------14b---|----------14br--12--14--12--14-------7--|
D|-----------------------|--------------------------------7/9-----|
A|-----------------------|----------------------------------------|
E|-----------------------|----------------------------------------|

e|-----------------------------|---------------------12------12--|
B|----------------8--8--10--8--|--15b--15br--12--15------15------|
G|-----7--9--7h9---------------|---------------------------------|
D|--9--------------------------|---------------------------------|
A|-----------------------------|---------------------------------|
E|-----------------------------|---------------------------------|

e|-15-------------------------------|--------------7-------------------------|
B|-----15br--13--15--13--15---------|-----------------10---------------------|
G|---------------------------9br--7-|-9-----7--9b---------9br--7--9----7-9---|
D|----------------------------------|----9---------------------------9------9|
A|----------------------------------|----------------------------------------|
E|----------------------------------|----------------------------------------|

e|-----------------------------------------|------------------------------|
B|-----------------------------------------|------10--10------------------|
G|--------------------------------------7--|--9b------9br--7--9-----7--9--|
D|------------------------------7--7/9-----|---------------------9--------|
A|--9\7--5--7-----5--7--5--7/9-------------|------------------------------|
E|-------------7---------------------------|------------------------------|

e|------------------------------------|-------------------------------------|
B|------------------------------------|-------------------------------------|
G|--11hbr--9--11--11hbr--11--9--7-----|--9br--7--9b--7-------------------7--|
D|---------------------------------9--|-----------------9--7-------7--9-----|
A|------------------------------------|-----------------------7/9-----------|
E|------------------------------------|-------------------------------------|

e|---------------------------------------|-----------------------------------|
B|---------------------------------------|-10b--10--10b--12br--10--12--10--12|
G|--11hbr--11--9--11--11hbr--9--11--7--9-|-----------------------------------|
D|---------------------------------------|-----------------------------------|
A|---------------------------------------|-----------------------------------|
E|---------------------------------------|-----------------------------------|

e|--------------------------------------------|
B|--15--12\10------10------------------7--10--|
G|-------------12------9hbr--7--9--9b---------|
D|--------------------------------------------|
A|--------------------------------------------|
E|--------------------------------------------|

e|----------------------------------------------------|
B|------7--10------7--10------7--10-------------------|
G|--9b---------9b---------9b---------9br--7--9-----7--|
D|----------------------------------------------9-----|
A|----------------------------------------------------|
E|----------------------------------------------------|

e|----------7-------------------------------|
B|-----10b-----10b--11pb--11pb--11pb--7h10--|
G|--7---------------------------------------|
D|------------------------------------------|
A|------------------------------------------|
E|------------------------------------------|

e|---------10---------------------------------|---------------------------|
B|--10--7------10pbr--8--10-----7-------------|---------------------------|
G|---------------------------9-----9br--7--9--|-----7--9p7-----9b----10b--|
D|--------------------------------------------|--9----------9-------------|
A|--------------------------------------------|---------------------------|
E|--------------------------------------------|---------------------------|

e|-----------------------------------------------------|
B|-----------------------------------------------------|
G|--12--12b1qr--10--7--9-----7-------------------------|
D|------------------------9-----9--7-------------------|
A|------------------------------------9\7--5--7hbr--5--|
E|-----------------------------------------------------|

e|----------------------------------------------|
B|----------------------------------------------|
G|----------------------------------------------|
D|-------------------------------------------7--|
A|--7hbr--5--7--5-----5--7--5-----5--7--7/9-----|
E|-----------------7-----------7----------------|

e|--------------------------10------14--15--17--|
B|----------------10--9/12------15--------------|
G|-------7--8/11--------------------------------|
D|--7/9-----------------------------------------|
A|----------------------------------------------|
E|----------------------------------------------|

e|------------------------------------------|
B|--17br--15--17------15--17--15--18b--18b--|
G|----------------16------------------------|
D|------------------------------------------|
A|------------------------------------------|
E|------------------------------------------|

e|-----------------------------------------7------|
B|--17b--15--17------15--17b--10br--8--10-----10--|
G|---------------16-------------------------------|
D|------------------------------------------------|
A|------------------------------------------------|
E|------------------------------------------------|

e|--10---------------------------------------|------------|
B|------10pbr--8--10-------------------------|----10------|
G|--------------------9br--7--9-----7--9--7--|----9brb----|
D|-------------------------------9-----------|------------|
A|-------------------------------------------|------------|
E|-------------------------------------------|------------|

Outro Solo

e|--------10------|--10---10----10----10----10----10----10----|
B|------------10--|--13b--13pb--13pb--13pb--13pb--13pb--13pb--|
G|--8/11----------|-------------------------------------------|
D|----------------|-------------------------------------------|
A|----------------|-------------------------------------------|
E|----------------|-------------------------------------------|

e|--13p10---------13p10---------13p10---------13p10---------|
B|---------13p10---------13p10---------13p10---------13p10--|
G|----------------------------------------------------------|
D|----------------------------------------------------------|
A|----------------------------------------------------------|
E|----------------------------------------------------------|

e|--13p10---------13p10---------13p10---------13p10---------|
B|---------13p10---------13p10---------13p10---------13p10--|
G|----------------------------------------------------------|
D|----------------------------------------------------------|
A|----------------------------------------------------------|
E|----------------------------------------------------------|

e|--13p10---------13p10---------13p10---------13p10---------|
B|---------13p10---------13p10---------13p10---------13p10--|
G|----------------------------------------------------------|
D|----------------------------------------------------------|
A|----------------------------------------------------------|
E|----------------------------------------------------------|

e|--13p10---------13p10---------13p10---------13p10---------|
B|---------13p10---------13p10---------13p10---------13p10--|
G|----------------------------------------------------------|
D|----------------------------------------------------------|
A|----------------------------------------------------------|
E|----------------------------------------------------------|

e|--13b--13--10------10---------------------------------------|
B|---------------13------13b--13pb--13p10---------------------|
G|-----------------------------------------12--10-------------|
D|-------------------------------------------------12p10------|
A|--------------------------------------------------------12--|
E|------------------------------------------------------------|

e|-----------------------------------------------------|
B|-----------------------------------------------------|
G|------10---------------------10-----------------12b--|
D|--12------12p10------10--12------12p10------10-------|
A|-----------------12---------------------12-----------|
E|-----------------------------------------------------|

e|---------------------------------------------------------------------------|
B|---------------------------------------------------------------------------|
G|--12pbr--10------12b--12pbr--10------12b--12pbr--10------12b--12pbr--10----|
D|-------------12------------------12------------------12------------------12|
A|---------------------------------------------------------------------------|
E|---------------------------------------------------------------------------|

e|----------------------------|----------------------------------------------|
B|----------------------------|----------------------------------------------|
G|-12b--12pbr--10------10-----|-----10---------------------10----------------|
D|-----------------12------12-|-12------12p10------10--12------12p10----10h12|
A|----------------------------|----------------12--------------------12------|
E|----------------------------|----------------------------------------------|

e|-----------------------------------------------|
B|-----------------------------------------------|
G|-----------------------------------10----------|
D|--12--10-----------------------10------10--12--|
A|----------12--10\8-------9/12------------------|
E|--------------------10\------------------------|

e|------------------------------------------------|
B|------------------------------------------------|
G|-------7--7--7-----7--7-----8--9br--7-----7--9--|
D|--6/9-----------9--------9-------------9--------|
A|------------------------------------------------|
E|------------------------------------------------|

e|------------------------------------------------|
B|-------6--6--6-----6--6-----6--8br--6-----6--8--|
G|--6h7-----------7--------7-------------7--------|
D|------------------------------------------------|
A|------------------------------------------------|
E|------------------------------------------------|

e|----------------------------------------------------|
B|-------8--8--8-----8--8-----8--10br--8-----10p8-----|
G|--7h9-----------9--------9--------------9--------9--|
D|----------------------------------------------------|
A|----------------------------------------------------|
E|----------------------------------------------------|

e|-----------------------10----------12br--10--12p10------10------10--|
B|--------10--12p10----------12--10-------------------12------12------|
G|--8h11-------------11-----------------------------------------------|
D|--------------------------------------------------------------------|
A|--------------------------------------------------------------------|
E|--------------------------------------------------------------------|

e|--17b--17pbr--14------14-------17--------------------------------|
B|-----------------17------17b-------17pbr--17p15------15------15--|
G|-------------------------------------------------16------16------|
D|-----------------------------------------------------------------|
A|-----------------------------------------------------------------|
E|-----------------------------------------------------------------|

e|------14--17--17b--17pbr--10-------17--------------------------------|
B|--17--------------------------17b------17pbr--17p15------15------15--|
G|-----------------------------------------------------16------16------|
D|---------------------------------------------------------------------|
A|---------------------------------------------------------------------|
E|---------------------------------------------------------------------|

  Let bended note ring
e|-------17-------17-------17-------17-------17-------17-------17-------17---|
B|--17b------17b------17b------17b------17b------17b------17b------17b-------|
G|---------------------------------------------------------------------------|
D|---------------------------------------------------------------------------|
A|---------------------------------------------------------------------------|
E|---------------------------------------------------------------------------|

e|-------17--------------------|
B|--17b------17pbr--17p15------|
G|-------------------------16--|
D|-----------------------------|
A|-----------------------------|
E|-----------------------------|

e|----------12p10------10-------------------------------|
B|--15--15---------12------12p10------12----------------|
G|--------------------------------11------9p7-----7--5--|
D|---------------------------------------------9--------|
A|------------------------------------------------------|
E|------------------------------------------------------|

e|----------------------------------------|
B|--------------------------------8br--6--|
G|--7--7--5--7--7--5--7--7--5--7----------|
D|----------------------------------------|
A|----------------------------------------|
E|----------------------------------------|

e|----------------------------------------|
B|--------------------------------8br--6--|
G|--7--7--5--7--7--5--7--7--5--7----------|
D|----------------------------------------|
A|----------------------------------------|
E|----------------------------------------|

e|----------------------------------------|
B|--------------------------------8br--6--|
G|--7--7--5--7--7--5--7--7--5--7----------|
D|----------------------------------------|
A|----------------------------------------|
E|----------------------------------------|

e|-------------------------------------------10------|
B|-----------------------------------------------10--|
G|--7--5-------------------------------8/11----------|
D|--------7--5\3--5p3-----5--3-----------------------|
A|---------------------5--------5p3p0----------------|
E|---------------------------------------------------|

e|---------------------------------------------------------|
B|--13b--13b--13b--13pbr--10--13b--13pbr--10--13b--13--10--|
G|---------------------------------------------------------|
D|---------------------------------------------------------|
A|---------------------------------------------------------|
E|---------------------------------------------------------|

e|--13p10------13p10------13p10------13p10------13p10------13p10------|
B|---------10---------10---------10---------10---------10---------10--|
G|--------------------------------------------------------------------|
D|--------------------------------------------------------------------|
A|--------------------------------------------------------------------|
E|--------------------------------------------------------------------|

e|--13p10------13p10------13p10------13p10------13p10------13p10------|
B|---------10---------10---------10---------10---------10---------10--|
G|--------------------------------------------------------------------|
D|--------------------------------------------------------------------|
A|--------------------------------------------------------------------|
E|--------------------------------------------------------------------|

e|--13p10------13p10------13p10------13p10------13p10------13p10------|
B|---------10---------10---------10---------10---------10---------10--|
G|--------------------------------------------------------------------|
D|--------------------------------------------------------------------|
A|--------------------------------------------------------------------|
E|--------------------------------------------------------------------|

e|--13p10------13p10------13p10------13p10------13p10------13p10------|
B|---------10---------10---------10---------10---------10---------10--|
G|--------------------------------------------------------------------|
D|--------------------------------------------------------------------|
A|--------------------------------------------------------------------|
E|--------------------------------------------------------------------|

e|--13p10------13p10------13p10------13p10------13p10------13p10------|
B|---------10---------10---------10---------10---------10---------10--|
G|--------------------------------------------------------------------|
D|--------------------------------------------------------------------|
A|--------------------------------------------------------------------|
E|--------------------------------------------------------------------|

e|--13p10------13p10--|
B|---------10---------|
G|--------------------|
D|--------------------|
A|--------------------|
E|--------------------|

e|----------------------------------10----------10---------------------|
B|--13b+--13pbr--10--13--13pbr--10----------10----------10--13--13/15--|
G|--------------------------------------12----------12-----------------|
D|---------------------------------------------------------------------|
A|---------------------------------------------------------------------|
E|---------------------------------------------------------------------|

e|------------------------------------------15br--13--| 
B|--15--15--13--15--15--13--15--15--13--15------------|
G|----------------------------------------------------|
D|----------------------------------------------------|
A|----------------------------------------------------|
E|----------------------------------------------------|

e|------------------------------------------15br--13--| 
B|--15--15--13--15--15--13--15--15--13--15------------|
G|----------------------------------------------------|
D|----------------------------------------------------|
A|----------------------------------------------------|
E|----------------------------------------------------|

e|-------------------------------------------------------------------| 
B|--15--15--13--15--15--13--15p13------13--15p13------13--15p13------|
G|---------------------------------14-------------14-------------14--|
D|-------------------------------------------------------------------|
A|-------------------------------------------------------------------|
E|-------------------------------------------------------------------|

e|---------------------------------------------------------------|
B|--13-----------------------------------------------------------|
G|------14\12--10--12p10------10--12--10-----------------10------|
D|------------------------12--------------12p10------10------12--|
A|-----------------------------------------------12--------------|
E|---------------------------------------------------------------|

e|-----------------------------------------|
B|--10--10--10--10----10--10---10--10--10--| 
G|--9b--9b--9b--9pbr--7---9br--9---7---9b--| 
D|-----------------------------------------|
A|-----------------------------------------|
E|-----------------------------------------|

e|-----------------------------------------------|
B|--13---13---13---13-----13--13----13--13--13---|
G|--12b--12b--12b--12pbr--10--12br--12--10--12b--|
D|-----------------------------------------------|
A|-----------------------------------------------|
E|-----------------------------------------------|

e|----------------------------------------------------|
B|--15---15---15---15-----15--15----15--15--15--------|
G|--14b--14b--14b--14pbr--12--14br--14--12--14b---9b--|
D|----------------------------------------------------|
A|----------------------------------------------------|
E|----------------------------------------------------|

e|--10----------------------------------------------|
B|------10------10--10------10--10------10--10------|
G|----------9b----------9b----------9b----------9b--|
D|--------------------------------------------------|
A|--------------------------------------------------|
E|--------------------------------------------------|

e|---------------------------------------------------|
B|--10--10------10--10------10--10------10--10-------|
G|----------9b----------9b----------9b----------12b--|
D|---------------------------------------------------|
A|---------------------------------------------------|
E|---------------------------------------------------|

  Let notes ring
e|--13-----------13-----------13-----------13-----------|
B|------13-----------13-----------13-----------13-------|
G|----------12b----------12b----------12b----------14b--|
D|------------------------------------------------------|
A|------------------------------------------------------|
E|------------------------------------------------------|

  Let notes ring
e|--15-----------15-----------15-----------15------|
B|------15-----------15-----------15-----------15--|
G|----------14b----------14b----------14b----------|
D|-------------------------------------------------|
A|-------------------------------------------------|
E|-------------------------------------------------|

e|------------------------------------------------------------------|
B|--10--10--10--10--10--10--10--10--10--10--10--10--10--10--10--10--|
G|--9b------9b------9b------9b------9b------9b------9b------9b------|
D|------------------------------------------------------------------|
A|------------------------------------------------------------------|
E|------------------------------------------------------------------|

e|------------------------------------------------------------------|
B|--10--10--10--10--10--10--10--10--10--10--10--10--10--10--10--10--|
G|--9b------9b------9b------9b------9b------9b------9b------9b------|
D|------------------------------------------------------------------|
A|------------------------------------------------------------------|
E|------------------------------------------------------------------|

e|--------------------------------------------------------------------------|
B|--13---13--13---13--13---13--13---13--13---13--13---13--13---13--13---13--|
G|--12b------12b------12b------12b------12b------12b------12b------12b------|
D|--------------------------------------------------------------------------|
A|--------------------------------------------------------------------------|
E|--------------------------------------------------------------------------|

e|--------------------------------------------------------------------------|
B|--15---15--15---15--15---15--15---15--15---15--15---15--15---15--15---15--|
G|--14b------14b------14b------14b------14b------14b------14b------14b------|
D|--------------------------------------------------------------------------|
A|--------------------------------------------------------------------------|
E|--------------------------------------------------------------------------|

e|---------------------------------------------------|
B|---------------------------------------------------|
G|--10-------------10-------------10-------------10--|
D|------12p10----------12p10----------12p10----------|
A|-------------12-------------12-------------12------|
E|---------------------------------------------------|

e|----------------|----------------|----------------|----------------|
B|----------------|----------------|----------------|----------------|
G|----------------|----------------|----------------|----------------|
D|----------------|----------------|----------------|----------------|
A|----------------|----------------|----------------|----------------|
E|----------------|----------------|----------------|----------------|

e|--------------------------------------|------------------------------------|
B|--13b--13b--13b--13b--13pbr--10--13b--|--13b--13b--13b--13pbr--13--10--13--|
G|--------------------------------------|------------------------------------|
D|--------------------------------------|------------------------------------|
A|--------------------------------------|------------------------------------|
E|--------------------------------------|------------------------------------|

  Guitar II (Overdriven tone) Harmony to the two previous measures
e|-----------------------------------------------|
B|--17hb--17hb--17hb--17hb--17hpbr--17p15--17hb--|
G|-----------------------------------------------|
D|-----------------------------------------------|
A|-----------------------------------------------|
E|-----------------------------------------------|

e|------------------------------------|
B|--18b--18b--18b--18pbr--17--15--17--|
G|------------------------------------|
D|------------------------------------|
A|------------------------------------|
E|------------------------------------|

e|--10------------------------------10----------10--|
B|------10h13--13b--13b------13p10----------10------|
G|--------------------------------------12----------|
D|--------------------------------------------------|
A|--------------------------------------------------|
E|--------------------------------------------------|

e|---------12p10-----------------12p10----------------13b--13pbr--|
B|--13p10---------13p10--10-------------13p10--13p10--------------| 
G|---------------------------12-----------------------------------|
D|----------------------------------------------------------------|
A|----------------------------------------------------------------|
E|----------------------------------------------------------------|

e|--12--10--13p12p10--12p10------10---------------10--|
B|---------------------------13------13p10--8h10------|
G|----------------------------------------------------|
D|----------------------------------------------------|
A|----------------------------------------------------|
E|----------------------------------------------------|

e|--8p7p5--5---------------------10p8------|--15b--12b--10------------------|
B|------------6--8h6p8--10p8h10--------10--|----------------13--------------|
G|-----------------------------------------|--------------------14--10------|
D|-----------------------------------------|----------------------------10--|
A|-----------------------------------------|--------------------------------|
E|-----------------------------------------|--------------------------------|

e|-------------------------------------|-----------|-----------|-----------|
B|--10----------9--------8-------------|-----------|-----------|-----------|
G|------10---------9--------8-------7--|-----------|-----------|-----------|
D|----------10--------9--------8----7--|-----------|-----------|-----------|
A|----------------------------------5--|-----------|-----------|-----------|
E|-------------------------------------|-----------|-----------|-----------|

************************************

| /   slide up
| \   slide down
| h   hammer-on
| p   pull-off
| ~   vibrato
| +   harmonic
| x   Mute note
| b   Bend
| pb  Pre-bend
| br  Bend release
| pbr Pre-bend release
| brb Bend release bend

************************************
Добавлено: 15.11.2013
Другие материалы по этой песне:

Страница создана 23.06.2012
http://primanota.ru/blackfoot/i-stand-alone-chords.htm
Привет, Гость.
Предлагаем пройти революционный курс по гитаре.
Подарок от PrimaNota.Ru, забирай!