PrimaNota.ru - самый крупный в мире бесплатный архив песенных текстов, аккордов, табулатур и нот


Blackfoot - Flyin High - таба, видео

Регистрация Запомнить меня
Войти через:  Facebook Google Twitter Vk Yandex Mail.ru

Blackfoot - Flyin High - таба, видео

Печатать
Просмотров: 133
-------------------------------------------------------------------------------
1. 			     Flyin'High- Blackfoot
2.                             Flyin'High - 1976
3.    Words and Music by Rick Medlocke, Jakson Spires and Charlie Hargrett
-------------------------------------------------------------------------------
Tabbed by: Duane Baldwin

Email: duaneandjulie@gmail.com

Tuning: Half-step down

Guitar I (over driven)
Intro
e|-----------------------------|-----------------------------------------|
B|-----------------------------|---------------6-------------------------|
G|--7p5h7~~~~~--7--5-----------|--7p5h7~~~-----5--------------10--12~~~--|
D|--7p5h7~~~~~--7--5--5--3--5--|--7p5h7~~~--5---------10--12--10--12~~~--|
A|--------------------5--3--5--|------------------10--10--12-------------|
E|-----------------------------|------------------10---------------------|

e|-----------------------------|-------------------------|
B|-----------------------------|-------------------------|
G|--7p5h7~~~~~--7--5-----------|--7p5h7~~~--7--5---------|
D|--7p5h7~~~~~--7--5--5--3--5--|--7p5h7~~~--7--5--5p3p0--|
A|--------------------5--3--5--|------------------5p3p0--|
E|-----------------------------|-------------------------|

e|---------------------|
B|---------------------|
G|--------5--7--10--7--|
D|--5--7--5--7--10--7--|
A|--5--7---------------|
E|---------------------|
1st Solo (tab for the solo is with Guitar II )
                                        U       U U
e|--2----2---|-------3---|--2----2---|--3----1--1/3---|--2----2---|
B|--3----3---|--3----3---|--3----3---|--3----1--1/3---|--3----3---|
G|--2----2---|--0----0---|--2----2---|--0----2--2/4---|--2----2---|
D|--0----0---|--0----2---|--0----0---|-------3--3/5---|--0----0---|
A|-----------|--2----3---|-----------|-------3--------|-----------|
E|-----------|--3--------|-----------|-------1--------|-----------|

1st Verse
                            U       U U
e|-------3---|--2----2---|--3----1--1/3---|--2----2---|
B|--3----3---|--3----3---|--3----1--1/3---|--3----3---|
G|--0----0---|--2----2---|--0----2--2/4---|--2----2---|
D|--0----2---|--0----0---|-------3--3/5---|--0----0---|
A|--2----3---|-----------|-------3--------|-----------|
E|--3--------|-----------|-------1--------|-----------|
          
                            U       U U
e|-------3---|--2----2---|--3----1--1/3---|--2----2---|
B|--3----3---|--3----3---|--3----1--1/3---|--3----3---|
G|--0----0---|--2----2---|--0----2--2/4---|--2----2---|
D|--0----2---|--0----0---|-------3--3/5---|--0----0---|
A|--2----3---|-----------|-------3--------|-----------|
E|--3--------|-----------|-------1--------|-----------|
                                     U       U U
e|-------3----1----3--|--2----2---|--3----1--1/3---|--2----2---|
B|--3----3----1----3--|--3----3---|--3----1--1/3---|--3----3---|
G|--0----0----2----4--|--2----2---|--0----2--2/4---|--2----2---|
D|--0----2----3----5--|--0----0---|-------3--3/5---|--0----0---|
A|--2----3------------|-----------|-------3--------|-----------|
E|--3-----------------|-----------|-------1--------|-----------|

                            U       U U
e|-------3---|--2----2---|--3----1--1/3---|--2----2---|
B|--3----3---|--3----3---|--3----1--1/3---|--3----3---|
G|--0----0---|--2----2---|--0----2--2/4---|--2----2---|
D|--0----2---|--0----0---|-------3--3/5---|--0----0---|
A|--2----3---|-----------|-------3--------|-----------|
E|--3--------|-----------|-------1--------|-----------|

                            U       U U
e|-------3---|--2----2---|--3----1--1/3---|--2----2---|-------3---|
B|-------3---|--3----3---|--3----1--1/3---|--3----3---|-------3---|
G|--0----0---|--2----2---|--0----2--2/4---|--2----2---|--0----0---|
D|--0----2---|--0----0---|-------3--3/5---|--0----0---|--0----2---|
A|--2----3---|-----------|-------3--------|-----------|--2----3---|
E|--3--------|-----------|-------1--------|-----------|--3--------|

Intro Reprise
e|-----------------------------|---------------------------------------------|
B|-----------------------------|---------------------------------------------|
G|--7p5h7~~~~~--7--5-----------|--7p5h7~~~----10~~~---------------10--12~~~--|
D|--7p5h7~~~~~--7--5--5--3--5--|--7p5h7~~~----10~~~-------10--12--10--12~~~--|
A|--------------------5--3--5--|----------------------10--10--12-------------|
E|-----------------------------|----------------------10---------------------|

e|-----------------------------|-------------------------|
B|-----------------------------|-------------------------|
G|--7p5h7~~~~~--7--5-----------|--7p5h7~~~--7--5---------|
D|--7p5h7~~~~~--7--5--5--3--5--|--7p5h7~~~--7--5--5p3p0--|
A|--------------------5--3--5--|------------------5p3p0--|
E|-----------------------------|-------------------------|

e|---------------------|
B|---------------------|
G|--------5--7--10--7--|
D|--5--7--5--7--10--7--|
A|--5--7---------------|
E|---------------------|

2nd Verse
                U       U U
e|--2----2---|--3----1--1/3---|--2----2---|-------3---|--2----2---|
B|--3----3---|--3----1--1/3---|--3----3---|--3----3---|--3----3---|
G|--2----2---|--0----2--2/4---|--2----2---|--0----0---|--2----2---|
D|--0----0---|-------3--3/5---|--0----0---|--0----2---|--0----0---|
A|-----------|-------3--------|-----------|--2----3---|-----------|
E|-----------|-------1--------|-----------|--3--------|-----------|
                           
    U       U U
e|--3----1--1/3---|--2----2---|-------3----1----3--|--2----2---|
B|--3----1--1/3---|--3----3---|--3----3----1----3--|--3----3---|
G|--0----2--2/4---|--2----2---|--0----0----2----4--|--2----2---|
D|-------3--3/5---|--0----0---|--0----2----3----5--|--0----0---|
A|-------3--------|-----------|--2----3------------|-----------|
E|-------1--------|-----------|--3-----------------|-----------|

    U       U U                                          U       U U
e|--3----1--1/3---|--2----2---|-------3---|--2----2---|--3----1--1/3---|
B|--3----1--1/3---|--3----3---|--3----3---|--3----3---|--3----1--1/3---|
G|--0----2--2/4---|--2----2---|--0----0---|--2----2---|--0----2--2/4---|
D|-------3--3/5---|--0----0---|--0----2---|--0----0---|-------3--3/5---|
A|-------3--------|-----------|--2----3---|-----------|-------3--------|
E|-------1--------|-----------|--3--------|-----------|-------1--------|

e|--2----2---|-------3---|
B|--3----3---|-------3---|
G|--2----2---|--0----0---|
D|--0----0---|--0----2---|
A|-----------|--2----3---|
E|-----------|--3--------|

1st Chorus
         P.M.------------|         P.M.------------|
e|-------------------------|-------------------------|
B|-------------------------|-------------------------|
G|-------------------------|--5----5--5--5--5--5--5--|
D|--3----3--3--3--3--3--3--|--5----5--5--5--5--5--5--|
A|--3----3--3--3--3--3--3--|--3----3--3--3--3--3--3--|
E|--1----1--1--1--1--1--1--|-------------------------|

e|--2--2--2--2--2--2--2--2--|--2--2--2--2-------------2--|
B|--3--3--3--3--3--3--3--3--|--3--3--3--3-------------3--|
G|--2--2--2--2--2--2--2--2--|--2--2--2--2-------------2--|
D|--0--0--0--0--0--0--0--0--|--0--0--0--0----3p0------0--|
A|--------------------------|---------------------3------|
E|--------------------------|----------------------------|

        P.M.------------|         U      
e|-------------------------|--3----3-----|-------2------------------|
B|-------------------------|--3----3-----|-------3------------------|
G|-------------------------|--0----0-----|-------2------------------|
D|--3----3--3--3--3--3--3--|--0----0-----|--0----0--3p0-----3p0-----|
A|--3----3--3--3--3--3--3--|--2----------|---------------3-------3--|
E|--1----1--1--1--1--1--1--|--3----------|--------------------------|

				P.M.------------|       U
e|-------------------2--|-------------------------|--3--3----3--3--3--3--|
B|-------------------3--|-------------------------|--3--3----3--3--3--3--|
G|-------------------2--|-------------------------|--0--0----0--0--0--0--|
D|--3p0-----3p0------0--|--3----3--3--3--3--3--3--|--0--0----0--0--0--0--|
A|-------3-------3------|--3----3--3--3--3--3--3--|--2-------------------|
E|----------------------|--1----1--1--1--1--1--1--|--3-------------------|


e|--2--2--2--2--2--2--2--2--|--2--2--2--2--2--2--2--2--|---3---|--3----------|
B|--3--3--3--3--3--3--3--3--|--3--3--3--3--3--3--3--3--|---3---|--3----------|
G|--2--2--2--2--2--2--2--2--|--2--2--2--2--2--2--2--2--|---0---|--0-----7p5--|
D|--0--0--0--0--0--0--0--0--|--0--0--0--0--0--0--0--0--|---0---|--2-----7p5--|
A|--------------------------|--------------------------|---2---|--3----------|
E|--------------------------|--------------------------|---3---|-------------|

Main Solo
e|------------------------|--------------------------------------------------|
B|------------------------|--------------------------------------------------|
G|--12b--12b--12bp+--12b--|-12pb--12pb--12pb--12pbp+--12pbrp+--10--12--12p10-|
D|------------------------|--------------------------------------------------|
A|------------------------|--------------------------------------------------|
E|------------------------|--------------------------------------------------|

e|------------------------|-----------------------------------------|
B|--13b--13b--13pbr--13b--|-----------------------------------------|
G|------------------------|--12bpr--10--12p10------10--12--12p+p10--|
D|------------------------|--------------------12-------------------|
A|------------------------|-----------------------------------------|
E|------------------------|-----------------------------------------|

e|------------------------------|------------------------------------------|
B|------------------------------|----------------------------------15--13--|
G|------------------10------10--|--12b--12pb--12pbr--10--12----14----------|
D|--12--12--10--12------12------|------------------------------------------|
A|------------------------------|------------------------------------------|
E|------------------------------|------------------------------------------|

e|--15b--15pbr--13----------------------------|--15b--15pbr--13--15b--15pbr--|
B|------------------15br--13------15------13--|------------------------------|
G|----------------------------14------14------|------------------------------|
D|--------------------------------------------|------------------------------|
A|--------------------------------------------|------------------------------|
E|--------------------------------------------|------------------------------|

e|--13----------13--|--15b--15--15b--15br--13h15--|-15b--15b--13--15br-13h15-|
B|------15--15------|-----------------------------|--------------------------|
G|------------------|-----------------------------|--------------------------|
D|------------------|-----------------------------|--------------------------|
A|------------------|-----------------------------|--------------------------|
E|------------------|-----------------------------|--------------------------|

e|--13p12p10--12hb~~~--12br--10--|-------------------------------------------|
B|-------------------------------|-------------------------------------------|
G|-------------------------------|--12pbr--10--12p10------12--12--10hpbr-----|
D|-------------------------------|--------------------12------------------12-|
A|-------------------------------|-------------------------------------------|
E|-------------------------------|-------------------------------------------|

e|------------------------------10------10--13--10-------|
B|-------------------------13b------13--------------13b--|
G|----------10------12p10--------------------------------|
D|--10--12------12---------------------------------------|
A|-------------------------------------------------------|
E|-------------------------------------------------------|

e|--10----------10---------------------------------------------|
B|------13--10----------------------------11p10------10--------|
G|------------------13\12--10--10h12-------------12------12br--|
D|------------------------------------12-----------------------|
A|-------------------------------------------------------------|
E|-------------------------------------------------------------|

e|------------------------------------------------------------------|
B|--------------------------10--------------------------------------|
G|--10------10--12--10----------12--10------12--10----------10------|
D|------12--------------12--------------12----------12--10------12--|
A|------------------------------------------------------------------|
E|------------------------------------------------------------------|

e|------------------------------------------------------|
B|------------------------------------------------------|
G|----------10------------------------------------------|
D|--10----------12--10------10--------------------------|
A|------12--------------12------12\10--8--10hbr--8------|
E|--------------------------------------------------10--|

3rd Verse
                U       U U
e|--2----2---|--3----1--1/3---|--2----2---|-------3---|--2----2---|
B|--3----3---|--3----1--1/3---|--3----3---|--3----3---|--3----3---|
G|--2----2---|--0----2--2/4---|--2----2---|--0----0---|--2----2---|
D|--0----0---|-------3--3/5---|--0----0---|--0----2---|--0----0---|
A|-----------|-------3--------|-----------|--2----3---|-----------|
E|-----------|-------1--------|-----------|--3--------|-----------|
                           
    U       U U
e|--3----1--1/3---|--2----2---|-------3----1----3--|--2----2---|
B|--3----1--1/3---|--3----3---|--3----3----1----3--|--3----3---|
G|--0----2--2/4---|--2----2---|--0----0----2----4--|--2----2---|
D|-------3--3/5---|--0----0---|--0----2----3----5--|--0----0---|
A|-------3--------|-----------|--2----3------------|-----------|
E|-------1--------|-----------|--3-----------------|-----------|

    U       U U                                          U       U U
e|--3----1--1/3---|--2----2---|-------3---|--2----2---|--3----1--1/3---|
B|--3----1--1/3---|--3----3---|--3----3---|--3----3---|--3----1--1/3---|
G|--0----2--2/4---|--2----2---|--0----0---|--2----2---|--0----2--2/4---|
D|-------3--3/5---|--0----0---|--0----2---|--0----0---|-------3--3/5---|
A|-------3--------|-----------|--2----3---|-----------|-------3--------|
E|-------1--------|-----------|--3--------|-----------|-------1--------|

e|--2----2---|-------3---|
B|--3----3---|-------3---|
G|--2----2---|--0----0---|
D|--0----0---|--0----2---|
A|-----------|--2----3---|
E|-----------|--3--------|

2nd Chorus
         P.M.------------|         P.M.------------|
e|-------------------------|-------------------------|
B|-------------------------|-------------------------|
G|-------------------------|--5----5--5--5--5--5--5--|
D|--3----3--3--3--3--3--3--|--5----5--5--5--5--5--5--|
A|--3----3--3--3--3--3--3--|--3----3--3--3--3--3--3--|
E|--1----1--1--1--1--1--1--|-------------------------|


e|--2--2--2--2--2--2--2--2--|--2--2--2--2-------------2--|
B|--3--3--3--3--3--3--3--3--|--3--3--3--3-------------3--|
G|--2--2--2--2--2--2--2--2--|--2--2--2--2-------------2--|
D|--0--0--0--0--0--0--0--0--|--0--0--0--0----3p0------0--|
A|--------------------------|---------------------3------|
E|--------------------------|----------------------------|

        P.M.------------|          U      
e|-------------------------|--3----3-----|--2--2--2--2--2--2--2--2--|
B|-------------------------|--3----3-----|--3--3--3--3--3--3--3--3--|
G|-------------------------|--0----0-----|--2--2--2--2--2--2--2--2--|
D|--3----3--3--3--3--3--3--|--0----0-----|--0--0--0--0--0--0--0--0--|
A|--3----3--3--3--3--3--3--|--2----------|--------------------------|
E|--1----1--1--1--1--1--1--|--3----------|--------------------------|

				P.M.------------|          P.M.------------|

e|--2--2--2--2--2--2--2--|-------------------------|-------------------------|
B|--3--3--3--3--3--3--3--|-------------------------|-------------------------|
G|--2--2--2--2--2--2--2--|-------------------------|--5----5--5--5--5--5--5--|
D|--0--0--0--0--0--0--0--|--3----3--3--3--3--3--3--|--5----5--5--5--5--5--5--|
A|-----------------------|--3----3--3--3--3--3--3--|--3----3--3--3--3--3--3--|
E|-----------------------|--1----1--1--1--1--1--1--|-------------------------|


e|--2--2--2--2--2--2--2--2--|--2--2--2------------------2--|----3--------3---|
B|--3--3--3--3--3--3--3--3--|--3--3--3------------------3--|----3--------0---|
G|--2--2--2--2--2--2--2--2--|--2--2--2------------------2--|----0--------0---|
D|--0--0--0--0--0--0--0--0--|--0--0--0--3p0-----3p0-----0--|----0--------2---|
A|--------------------------|----------------3-------3-----|----2--------3---|
E|--------------------------|------------------------------|----3------------|

Outro
e|-----------------------------|------------------------------------------|
B|-----------------------------|-------------6p+--------------------------|
G|--7p5h7~~~~~--7--5-----------|--7p5h7~~~---------------------10--12~~~--|
D|--7p5h7~~~~~--7--5--5--3--5--|--7p5h7~~~-------------10--12--10--12~~~--|
A|--------------------5--3--5--|-------------------10--10--12-------------|
E|-----------------------------|-------------------10---------------------|

e|-----------------------------------------------------|
B|-----------------------------------------------------|
G|--7p5h7~~~~~-----5p+-----5+p-----5p+--7--5-----------|
D|--7p5h7~~~~~--7-------7-------7-------7--5--5--3--5--|
A|--------------------------------------------5--3--5--|
E|-----------------------------------------------------|

e|-------------------------------|---------------------|
B|-------------------------------|---------------------|
G|--7p5h7~~~--7--5---------------|--------5--7--10--7--|
D|--7p5h7~~~--7--5--5p3p0--5--3--|--5--7--5--7--10--7--|
A|------------------5p3p0--5--3--|--5--7---------------|
E|-------------------------------|---------------------|

Outro solo
e|--------------------------------|------------------------------------------|
B|--8b--8b--8b--8b--8p6-----6-----|-8-----6----------------------------------|
G|-----------------------7-----7--|-----7-----7\5-----7--5-------------------|
D|--------------------------------|---------------7--------7--5\3-----5p3----|
A|--------------------------------|--------------------------------5------5-3|
E|--------------------------------|------------------------------------------|
                                                            L.R
e|------------------------------------|----------------------10------13b--|
B|------------------------------------|--8b--8br--6--8-----------10-------|
G|----------------------5-----5--7p5--|-----------------12b---------------|
D|--------3-----3--5/7-----7----------|-----------------------------------|
A|--5~~~-----5------------------------|-----------------------------------|
E|------------------------------------|-----------------------------------|

e|--13pbr--10------10----------10---------------------|
B|-------------13------13b~~~------10--13p10------10--|
G|--------------------------------------------12------|
D|----------------------------------------------------|
A|----------------------------------------------------|
E|----------------------------------------------------|

e|-------------------------------------|-------------------------------|
B|-------------------------------------|-------------------------------|
G|--12p10----------12--10--12p+--10p+--|--7p5h7~~~--7--5---------------|
D|---------12--10----------------------|--7p5h7~~~--7--5--5p3p0--5--3--|
A|-------------------------------------|------------------5p3p0--5--3--|
E|-------------------------------------|-------------------------------|

e|---------------------|----------|---------------|----------|---------------|
B|---------------------|----------|---------------|----------|---------------|
G|--------5--7--10--7--|--7----5--|--7----5----7--|--7----5--|--7----5----7--|
D|--5--7--5--7--10--7--|--7----5--|--7----5----7--|--7----5--|--7----5----7--|
A|--5--7---------------|--5----3--|--5----3----5--|--5----3--|--5----3----5--|
E|---------------------|----------|---------------|----------|---------------|

Guitar II (Over driven)
e|-----------------------------|---------------------------------------------|
B|-----------------------------|---------------------------------------------|
G|--7p5h7~~~~~--7--5-----------|--7p5h7~~~---0h10~~~--------------10--12~~~--|
D|--7p5h7~~~~~--7--5--5--3--5--|--7p5h7~~~---0h10~~~------10--12--10--12~~~--|
A|--------------------5--3--5--|----------------------10--10--12-------------|
E|-----------------------------|----------------------10---------------------|

e|------------------------------------|-------------------------------|
B|------------------------------------|-------------------------------|
G|--7p5h7~~~~~----5----7--5-----------|--7p5h7~~~--7--5---------------|
D|--7p5h7~~~~~----5----7--5--5--3--5--|--7p5h7~~~--7--5--5p3p0--5--3--|
A|---------------------------5--3--5--|------------------5p3p0--5--3--|
E|------------------------------------|-------------------------------|

e|---------------------|
B|---------------------|
G|--------5--7--10--7--|
D|--5--7--5--7--10--7--|
A|--5--7---------------|
E|---------------------|

Intro Solo
e|---------10--10---------10--10------|------------10---------------------10-|
B|--10h13----------10h13----------13--|-13p10---------10p8------8--10h13-----|
G|------------------------------------|--------12------------10--------------|
D|------------------------------------|--------------------------------------|
A|------------------------------------|--------------------------------------|
E|------------------------------------|--------------------------------------|

e|--13b---13p10----------|---------------------------------------------------|
B|----------------13p10--|---------------------------------------------------|
G|-----------------------|-14p12\10--12p10----------10-----------------------|
D|-----------------------|-------------------12--10------12--10--------------|
A|-----------------------|--------------------------------------12--11--10--8|
E|-----------------------|---------------------------------------------------|

1st Verse
e|-----------|------------|------------|------------|-----------|------------|
B|-----------|------------|------------|------------|-----------|------------|
G|--7----7---|------------|---7----7---|--------5---|--7----7---|------------|
D|--7----7---|---5----3---|---7----7---|---5----5---|--7----7---|---5----3---|
A|--5----5---|---5----3---|---5----5---|---5----3---|--5----5---|---5----3---|
E|-----------|---3----1---|------------|---3--------|-----------|---3----1---|

e|------------|----------------------|-----------|------------|------------|
B|------------|----------------------|-----------|------------|------------|
G|---7----7---|--------5----10----9--|--7----7---|------------|---7----7---|
D|---7----7---|---5----5----10----9--|--7----7---|---5----3---|---7----7---|
A|---5----5---|---5----3----8-----7--|--5----5---|---5----3---|---5----5---|
E|------------|---3------------------|-----------|---3----1---|------------|

e|------------|-----------|------------|------------|------------|
B|------------|-----------|------------|------------|------------|
G|--------5---|--7----7---|------------|---7----7---|--------5---|
D|---5----5---|--7----7---|---5----3---|---7----7---|---5----5---|
A|---5----3---|--5----5---|---5----3---|---5----5---|---5----3---|
E|---3--------|-----------|---3----1---|------------|---3--------|


Intro Reprise
e|-------------------------------|-------------------------------------------|
B|-------------------------------|-------------------------------------------|
G|--7p5h7~~~~-5---7--5-----------|--7p5h7~~~----10~~~---------------10--12~~~|
D|--7p5h7~~~~-5---7--5--5--3--5--|--7p5h7~~~----10~~~-------10--12--10--12~~~|
A|----------------------5--3--5--|----------------------10--10--12-----------|
E|-------------------------------|----------------------10-------------------|

e|----------------------------------|-------------------------------|
B|----------------------------------|-------------------------------|
G|--7p5h7~~~~~--5----7--5-----------|--7p5h7~~~--7--5---------------|
D|--7p5h7~~~~~--5----7--5--5--3--5--|--7p5h7~~~--7--5--5p3p0--5--3--|
A|-------------------------5--3--5--|------------------5p3p0--5--3--|
E|----------------------------------|-------------------------------|

e|---------------------|
B|---------------------|
G|--------5--7--10--7--|
D|--5--7--5--7--10--7--|
A|--5--7---------------|
E|---------------------|

2nd Verse
e|-----------|------------|------------|------------|-----------|------------|
B|-----------|------------|------------|------------|-----------|------------|
G|--7----7---|------------|---7----7---|--------5---|--7----7---|------------|
D|--7----7---|---5----3---|---7----7---|---5----5---|--7----7---|---5----3---|
A|--5----5---|---5----3---|---5----5---|---5----3---|--5----5---|---5----3---|
E|-----------|---3----1---|------------|---3--------|-----------|---3----1---|

e|------------|----------------------|-----------|------------|------------|
B|------------|----------------------|-----------|------------|------------|
G|---7----7---|--------5----10----9--|--7----7---|------------|---7----7---|
D|---7----7---|---5----5----10----9--|--7----7---|---5----3---|---7----7---|
A|---5----5---|---5----3----8-----7--|--5----5---|---5----3---|---5----5---|
E|------------|---3------------------|-----------|---3----1---|------------|

e|------------|-----------|------------|------------|------------|
B|------------|-----------|------------|------------|------------|
G|--------5---|--7----7---|------------|---7----7---|--------5---|
D|---5----5---|--7----7---|---5----3---|---7----7---|---5----5---|
A|---5----3---|--5----5---|---5----3---|---5----5---|---5----3---|
E|---3--------|-----------|---3----1---|------------|---3--------|


1st Chorus
         P.M.------------|         P.M.------------|
e|-------------------------|-------------------------|
B|-------------------------|-------------------------|
G|-------------------------|--5----5--5--5--5--5--5--|
D|--3----3--3--3--3--3--3--|--5----5--5--5--5--5--5--|
A|--3----3--3--3--3--3--3--|--3----3--3--3--3--3--3--|
E|--1----1--1--1--1--1--1--|-------------------------|

e|--------------------------------------------|------------------------------|
B|--13b--13b--13pbr--10--13b--13b--13pbr--10--|--13p10-----------------------|
G|--------------------------------------------|---------12--12br--12p10------|
D|--------------------------------------------|--------------------------12--|
A|--------------------------------------------|------------------------------|
E|--------------------------------------------|------------------------------|

        P.M.------------|          U      
e|-------------------------|--3----3-----|--15b--15b--15br--13------|
B|-------------------------|--3----3-----|----------------------15--|
G|-------------------------|--0----0-----|--------------------------|
D|--3----3--3--3--3--3--3--|--0----0-----|--------------------------|
A|--3----3--3--3--3--3--3--|--2----------|--------------------------|
E|--1----1--1--1--1--1--1--|--3----------|--------------------------|


                                         P.M.------------|          U      
e|--------------------------------|-------------------------|--3----3-----|
B|--15pbr--13--15p13------13--15--|-------------------------|--3----3-----|
G|--------------------14----------|-------------------------|--0----0-----|
D|--------------------------------|--3----3--3--3--3--3--3--|--0----0-----|
A|--------------------------------|--3----3--3--3--3--3--3--|--2----------|
E|--------------------------------|--1----1--1--1--1--1--1--|--3----------|
          
e|------10p8------8----------------------------------------------|
B|--10--------10-----10p8------8---------------------------------|
G|-------------------------10-----12p10------10------------------|
D|---------------------------------------12------12--10------10--|
A|-------------------------------------------------------12------|
E|---------------------------------------------------------------|

e|----------------------------|-----3-----|-----3-----|
B|----------------------------|-----3-----|-----3-----|
G|----------10--12br--10------|-----0-----|-----0-----|
D|--10--12----------------12--|-----0-----|-----2-----|
A|----------------------------|-----2-----|-----3-----|
E|----------------------------|-----3-----|-----------|

Main Solo
e|-----------------------------|-------------------------------------------|
B|-----------------------------|-------------------------------------------|
G|--7p5h7~~~~---7--5-----------|--7p5h7~~~----10~~~---------------10--12~~~|
D|--7p5h7~~~~---7--5--5--3--5--|--7p5h7~~~----10~~~-------10--12--10--12~~~|
A|--------------------5--3--5--|----------------------10--10--12-----------|
E|-----------------------------|----------------------10-------------------|

e|----------------------------------|-------------------------------|
B|----------------------------------|-------------------------------|
G|--7p5h7~~~~~--5----7--5-----------|--7p5h7~~~--7--5---------------|
D|--7p5h7~~~~~--5----7--5--5--3--5--|--7p5h7~~~--7--5--5p3p0--5--3--|
A|-------------------------5--3--5--|------------------5p3p0--5--3--|
E|----------------------------------|-------------------------------|

e|---------------------|-----------|----------------|------------|----------|
B|---------------------|-----------|----------------|------------|----------|
G|--------5--7--10--7--|--7----7---|--------3----5--|---7----7---|--10---9--|
D|--5--7--5--7--10--7--|--7----7---|---5----3----5--|---7----7---|--10---9--|
A|--5--7---------------|--5----5---|---5----1----3--|---5----5---|--8----7--|
E|---------------------|-----------|---3------------|------------|----------|

e|-----------|----------------|------------|----------|
B|-----------|----------------|------------|----------|
G|--7----7---|--------3----5--|---7----7---|--10---9--|
D|--7----7---|---5----3----5--|---7----7---|--10---9--|
A|--5----5---|---5----1----3--|---5----5---|--8----7--|
E|-----------|---3------------|------------|----------|

3rd Verse
e|-----------|------------|------------|------------|-----------|------------|
B|-----------|------------|------------|------------|-----------|------------|
G|--7----7---|------------|---7----7---|--------5---|--7----7---|------------|
D|--7----7---|---5----3---|---7----7---|---5----5---|--7----7---|---5----3---|
A|--5----5---|---5----3---|---5----5---|---5----3---|--5----5---|---5----3---|
E|-----------|---3----1---|------------|---3--------|-----------|---3----1---|

e|------------|----------------------|-----------|------------|------------|
B|------------|----------------------|-----------|------------|------------|
G|---7----7---|--------5----10----9--|--7----7---|------------|---7----7---|
D|---7----7---|---5----5----10----9--|--7----7---|---5----3---|---7----7---|
A|---5----5---|---5----3----8-----7--|--5----5---|---5----3---|---5----5---|
E|------------|---3------------------|-----------|---3----1---|------------|

e|------------|-----------|------------|------------|------------|
B|------------|-----------|------------|------------|------------|
G|--------5---|--7----7---|------------|---7----7---|--------5---|
D|---5----5---|--7----7---|---5----3---|---7----7---|---5----5---|
A|---5----3---|--5----5---|---5----3---|---5----5---|---5----3---|
E|---3--------|-----------|---3----1---|------------|---3--------|

2nd Chorus
         P.M.------------|         P.M.------------|
e|-------------------------|-------------------------|
B|-------------------------|-------------------------|
G|-------------------------|--5----5--5--5--5--5--5--|
D|--3----3--3--3--3--3--3--|--5----5--5--5--5--5--5--|
A|--3----3--3--3--3--3--3--|--3----3--3--3--3--3--3--|
E|--1----1--1--1--1--1--1--|-------------------------|

e|---------13--10------10--------------|------------------------|
B|-----------------13------13--10------|------------------------|
G|--10/12--------------------------10--|--12p10----12bhrbr--10--|
D|-------------------------------------|---------12-------------|
A|-------------------------------------|------------------------|
E|-------------------------------------|------------------------|

        P.M.------------|          U      
e|-------------------------|--3----3-----|-11h13--13--13--10-----------------|
B|-------------------------|--3----3-----|-11h13--13--13--10--11h13--13-13-10|
G|-------------------------|--0----0-----|--------------------10h12--12-12-10|
D|--3----3--3--3--3--3--3--|--0----0-----|-----------------------------------|
A|--3----3--3--3--3--3--3--|--2----------|-----------------------------------|
E|--1----1--1--1--1--1--1--|--3----------|-----------------------------------|

                                         P.M.------------|                
e|-------------------6/8--8--8--5--|-------------------------|
B|-------------------6/8--8--8--5--|-------------------------|
G|--12br--10--12p10----------------|-------------------------|
D|---------------------------------|--3----3--3--3--3--3--3--|
A|---------------------------------|--3----3--3--3--3--3--3--|
E|---------------------------------|--1----1--1--1--1--1--1--|
          
e|-------------------------|-----------------------------|
B|-------------------------|-----------------------------|
G|--5----5--5--5--5--5--5--|---------------------10------|
D|--5----5--5--5--5--5--5--|--12p10------10----------12--|
A|--3----3--3--3--3--3--3--|---------12------12----------|
E|-------------------------|-----------------------------|

e|---------------------------------|-----3-----|-----3-----|
B|-------------10p8------13--13b---|-----3-----|-----3-----|
G|--12p10------------10------------|-----0-----|-----0-----|
D|---------12----------------------|-----0-----|-----2-----|
A|---------------------------------|-----2-----|-----3-----|
E|---------------------------------|-----3-----|-----------|

Outro
e|-----------------------------|-------------------------------------------|
B|-----------------------------|-------------------------------------------|
G|--7p5h7~~~~---7--5-----------|--7p5h7~~~----10~~~---------------10--12~~~|
D|--7p5h7~~~~---7--5--5--3--5--|--7p5h7~~~----10~~~-------10--12--10--12~~~|
A|--------------------5--3--5--|----------------------10--10--12-----------|
E|-----------------------------|----------------------10-------------------|

e|----------------------------------|-------------------------------|
B|----------------------------------|-------------------------------|
G|--7p5h7~~~~~--5----7--5-----------|--7p5h7~~~--7--5---------------|
D|--7p5h7~~~~~--5----7--5--5--3--5--|--7p5h7~~~--7--5--5p3p0--5--3--|
A|-------------------------5--3--5--|------------------5p3p0--5--3--|
E|----------------------------------|-------------------------------|

e|---------------------|-----------|----------------|------------|----------|
B|---------------------|-----------|----------------|------------|----------|
G|--------5--7--10--7--|--7----7---|--------3----5--|---7----7---|--10---9--|
D|--5--7--5--7--10--7--|--7----7---|---5----3----5--|---7----7---|--10---9--|
A|--5--7---------------|--5----5---|---5----1----3--|---5----5---|--8----7--|
E|---------------------|-----------|---3------------|------------|----------|

e|-----------|----------------|-------------------------------|
B|-----------|----------------|-------------------------------|
G|--7----7---|--------3----5--|--7p5h7~~~--7--5---------------|
D|--7----7---|---5----3----5--|--7p5h7~~~--7--5--5p3p0--5--3--|
A|--5----5---|---5----1----3--|------------------5p3p0--5--3--|
E|-----------|---3------------|-------------------------------|

e|---------------------|-----------|----------------|------------|-----------|
B|---------------------|-----------|----------------|------------|-----------|
G|--------5--7--10--7--|--7----5---|---7----5----7--|---7----5---|--7--5--5--|
D|--5--7--5--7--10--7--|--7----5---|---7----5----7--|---7----5---|--7--5--5--|
A|--5--7---------------|--5----3---|---5----3----5--|---5----3---|--5--3--5--|
E|---------------------|-----------|----------------|------------|-----------|

************************************
| /   slide up
| \   slide down
| h   hammer-on
| p   pull-off
| ~   vibrato
| +   harmonic
| p+  Pinch harmonic
| x   Mute note
| b   Bend
| pb  Pre-bend
| br  Bend release
| pbr Pre-bend release
| brb Bend release bend
| qb  Quater bend
| hb  Half bend
| U   Strum up
************************************
Intro
D  C  D

D  C  G  F  G

D  C  D  F

G  A  C  F  G

D  C  D  C

D  C  G  F  G

D  C  D

D  C  G  F  A  G  F

G  A  C  D  F  D  

1st Solo

Oh yeah Oh
D  G  C

D  G  F  G 

D  G  C

1st Verse
        D                         G
well I got up early this morning 

           F   G      D   G  C
and had a song in my mind 

      D                        G  
and I would've had it finished 

              F     G    D    G  C   F  E
but I didn't have  the time 

D                    
too many people 

        G         F  G     D   G  C
keep a knockin on my back door 

        D
yes and always asking me 

G       F      G       D        G   C
 can I have a little more ah you know what I gotta say about that 

Intro reprise

D  C  D

D  C  G  F  G

D  C  D  F

G  A  C  F  G

D  C  D  C

D  C  G  F  G

D  C  D

D  C  G  F  A  G  F

G  A  C  D  F  D  

D                       G  
All my dreams of sorrow 

f              G        D  G  C
sometimes are hard to bear 

D                              G
but when I think about tomorrow 

 F             G    D    G  C  F  E
woe why should I care   

            D                      G  
well I've always had this yearnin' 

   F              G      D     G  C
to get this deep down inside 

      D                      G
but everybody's money honey 

F           G          D        G  C
tryin' to take a free ride 

1st Chorus

      F            C
and I feel  like I'm 

                 D
like I'm flyin' high(Flying high)

      F              C
and I feel like my soul 

             D
lord its on fire 

       F                C                         D
and it seems like that day just ain't ever gonna come 

G                C
(seems like I'm always on the run)

Main Solo

D  C  D

D  C  G  F  G

D  C  D  F

G  A  C  F  G

D  C  D  C

D  C  G  F  G

D  C  D

D  C  G  F  A  G  F

G  A  C  D  F  D  

D  G  F  G 

D  G  C

D  G  F  G 

D  G  C
 
3rd Verse
          D                    G  
oh Well I live to see the dawn 

       F        G        D    G  C
and I live to seek the sound 

     D                  G
and travlin on the road 

     F          G      D   G  C  F  E
has left it's battle scars 

        D                     G
well I feel my world is movin' 

           F        G        D  G  C
lord it's just around the bend 

    D
my song was born on the highway 

            F          G     D  G  C
and that's where it's gonna end 

2nd Chorus

      F           C
and I feel like I'm 
              
                 D
like I'm flyin' high (flying high)

       F            C                D
and I feel like my soul lord its on fire 

        F               C                         D
and it seems like that day just ain't ever gonna come 

G                 C
(feels like I'm always on the run)

Outro
D  C  D

D  C  G  F  G

D  C  D  F

G  A  C  F  G

D  C  D  C

D  C  G  F  G

D  C  D

D  C  G  F  A  G  F

G  A  C  D  F  D  

D  G  F  G 

D  G  C

D  G  F  G 

D  G  C

D  C  D

D  C  G  F  A  G  F

G  A  C  D  F  D 

D  C

D  C  D

D  C

D  C  D
Добавлено: 04.05.2012
Другие материалы по этой песне:

Страница создана 13.03.2012
http://primanota.ru/blackfoot/flyin-high-chords.htm
Привет, Гость.
Предлагаем пройти революционный курс по гитаре.
Подарок от PrimaNota.Ru, забирай!