PrimaNota.ru - самый крупный в мире бесплатный архив песенных текстов, аккордов, табулатур и нот


Blackfoot - Fire Of The Dragon - таба, видео

Регистрация Запомнить меня
Войти через:  Facebook Google Twitter Vk Yandex Mail.ru

Blackfoot - Fire Of The Dragon - таба, видео

Печатать
Просмотров: 128
-----------------------------------------------------------------------------
1.                                           Fire of the Dragon - Blackfoot
2.                                Maraduer-1981
3.              Words and Music by Rick Medlocke and Jakson Spires
----------------------------------------------------------------------------
Tabbed by: Duane Baldwin
Email: duaneandjulie@gmail.com

Tuning: Standard

Guitar I (overdriven)

Intro
e|----------------------|------------------------------|
B|----------------------|------------------------------|
G|-------7---9-------4--|------2-----------x---x---9\--|
D|-------7---9---4---4--|------2-------2---x---x---9\--|
A|--14\--5---7---0---2--|------0-------2---x---x---7\--|
E|----------------------|--3-------3---0---------------|

e|---------------------|------------------|
B|---------------------|------------------|
G|--9---7-------4---2--|--2-------9---7---|
D|--9---7---4---4---2--|--2-------9---7---|
A|--7---5---0---2---0--|--0-------7---5---|
E|---------------------|------3-----------|

1st Solo
e|--15------------------------------------------------|
B|------15b---15br------------------------------------|
G|------------------14---14br--0---2brp+---0---2bp+---|
D|----------------------------------------------------|
A|----------------------------------------------------|
E|----------------------------------------------------|

1st Verse (Clean)
  Let Ring--------------------------------------------------------|
e|------------0------------|---------------|------------|-------------------|
B|---------0------0--------|------------0--|--0------0--|-------------------|
G|------0------------0-----|---------0-----|--0---0-----|-2-----2--4\2------|
D|-------------------------|------0--------|--0---------|-2--2-----4\2------|
A|----------------------2--|--3------------|--2---------|-0--------0-0------|
E|--0----------------------|---------------|------------|---------------3--2|

  Let Ring---------|       Let Ring------------------------|
e|------------0-----------|--------------|------------0-----|---------------|
B|---------------0--------|-----------0--|---------0-----0--|---------------|
G|---------0--------------|--------0-----|------0-----------|-2--2--2--2--2-|
D|------2-----------------|-----0--------|------------------|-2--2--2--2--2-|
A|------------------0--2--|--3-----------|--2---------------|-0--0--0--0--0-|
E|--0---------------------|--------------|------------------|---------------|

1st Chorus (overdriven)
e|----------------------------|------------------------------|
B|----------------------------|------------------------------|
G|-------------7---9-------4--|------2-----------x---x---9\--|
D|-------------7---9---4---4--|------2-------2---x---x---9\--|
A|--x--x-------5---7---0---2--|------0-------2---x---x---7\--|
E|--x--x--12\-----------------|--3-------3---0---------------|

e|--------------------|-------------------------|
B|--------------------|-------------------------|
G|--7---9-------4--2--|--2----------x---x---9\--|
D|--7---9---4---4--2--|--2------2---x---x---9\--|
A|--5---7---0---2--0--|--0------2---x---x---7\--|
E|--------------------|-----3---0---------------|

e|--------------------|-------------------|
B|--------------------|-------------------|
G|--7---9-------4--4--|--2------------9\--|
D|--7---9---4---4--4--|--2-------2----9\--|
A|--5---7---0---2--2--|--0-------2----7\--|
E|--------------------|------3---0--------|

2nd Verse (clean)
  Let Ring-----------------------------------------------------------------|
e|---------------------|---------------|------------0--|--------------------|
B|---------0-----------|------------0--|---------------|--------------------|
G|------------0--------|---------0-----|---------0-----|----2-------4-----2-|
D|------2--------2-----|------0--------|------0--------|-2-----2/4-----2----|
A|------------------0--|--3------------|--2------------|--------------------|
E|--0------------------|---------------|---------------|--------------------|

          Let Ring-----------------------|     Let Ring----------------------
e|--------------------------|-----------------|-----------0--|--------------|
B|--------------0-----------|-----------0-----|--------------|-----0--------|
G|-----------------0--------|--------0--------|--------0-----|--------2-----|
D|-----------2--------2-----|-----0-----------|-----0--------|-----------2--|
A|-----------------------0--|--3-----------0--|--2-----------|--0-----------|
E|--3--2--0-----------------|-----------------|--------------|--------------|

   -----|
e|---------------|
B|--0------------|
G|-----2---------|
D|---------------|
A|---------------|
E|--------3--2---| 

1st Pre-Chorus (Overdriven)
                       Let Ring---|        Let Ring--|
e|--------------------|--------------------------|--2--------3-----|
B|-----------------1--|-----------1--3--1--0-----|--3--------3-----|
G|-----2--1--2--1--2--|--------2--------------2--|--2--------0-----|
D|--2--2--2--2--2--2--|-----2--------------------|--0--------0-----|
A|--2--2--2--2--2--0--|--0-----------------------|-----------2-----|
E|--0--0--0--0--0-----|--------------------------|-----0--2--3-----|


                                                  Let Ring---|       Let Ring
e|--------------------------|--------------------|--------------------------|
B|--------------------------|-----------------1--|-----------1--3--1--0-----|
G|--4--4--4--4--4--4--------|-----2--1--2--1--2--|--------2--------------2--|
D|--4--4--4--4--4--4--------|--2--2--2--2--2--2--|-----2--------------------|
A|--2--2--2--2--2--2--------|--2--2--2--2--2--0--|--0-----------------------|
E|--------------------3--2--|--0--0--0--0--0-----|--------------------------| 

   --|
e|--2--------3--|----------------------------------------------|
B|--3--------3--|----------------------------------------------|
G|--2--------0--|--4--4--4--4--4--4--4--4--4--4--4--4--4-------|
D|--0--------0--|--4--4--4--4--4--4--4--4--4--4--4--4--4-------|
A|-----------2--|--2--2--2--2--2--2--2--2--2--2--2--2--2--12\--|
E|-----0--2--3--|----------------------------------------------|

2nd Chorus
e|-----------------|------------------------------|
B|-----------------|------------------------------|
G|--7---9-------4--|------2-----------x---x---9\--|
D|--7---9---4---4--|------2-------2---x---x---9\--|
A|--5---7---0---2--|------0-------2---x---x---7\--|
E|-----------------|--3-------3---0---------------|

e|---------------------|----------------------|
B|---------------------|----------------------|
G|--9---7-------4---2--|--2-------9---7-------|
D|--9---7---4---4---2--|--2-------9---7-------|
A|--7---5---0---2---0--|--0-------7---5-------|
E|---------------------|------3----------12\--|

e|-----------------|------------------------------|
B|-----------------|------------------------------|
G|--7---9-------4--|------2-----------x---x---9\--|
D|--7---9---4---4--|------2-------2---x---x---9\--|
A|--5---7---0---2--|------0-------2---x---x---7\--|
E|-----------------|--3-------3---0---------------|

e|---------------------|---------------|
B|---------------------|---------------|
G|--9---7-------4---4--|--2------------|
D|--9---7---4---4---4--|--2-------2----|
A|--7---5---0---2---2--|--0-------2----|
E|---------------------|------3---0----|

Bridge and Main Solo
  Let Ring--|              Let Ring             Let Ring
e|-----------------------|----------------------|---------2--------------0--|
B|------9-----9h10p9-----|------5-----5h6p5-----|--2---------2-----------0--|
G|--9------9----------9--|--5------5---------5--|--4------------4--------1--|
D|--9--------------------|--5-------------------|--4------------------------|
A|--7--------------------|--3-------------------|--2---------------2--2-----|
E|-----------------------|----------------------|------------------0--0-----|


e|---------------------|---------------------|----------5p3-----5bp+---|
B|---------------------|--3--3---------------|-------3-------5---------|
G|--0p+--2p0--0--2bp+--|--------2p0--0--2p+--|--3/4--------------------|
D|---------------------|---------------------|-------------------------|
A|---------------------|---------------------|-------------------------|
E|---------------------|---------------------|-------------------------|

                        P.M. ---------------|
e|---------------------|---------------------------|--------------------|
B|--3--3----------3/5--|---------------------------|--15--15------------|
G|--------2p0----------|----------12------12--14b--|----------14br--12--|
D|-------------2-------|--12--14------14-----------|--------------------|
A|---------------------|---------------------------|--------------------|
E|---------------------|---------------------------|--------------------|

                              P.M. ---------------|
e|---------------------------|---------------------------------------------|
B|--15br--12-----------------|---------------------------15-------15-------|
G|------------12--14p12------|----------12------12--14b------14b------14b--|
D|-----------------------14--|--12--14------14-----------------------------|
A|---------------------------|---------------------------------------------|
E|---------------------------|---------------------------------------------|

                                  *Long Delay
e|------------------------------|-----------------|
B|--15-------15-----------------|--4/17*----------|
G|------14b------14br--12-------|-----------------|
D|-------------------------14---|-----------------|
A|------------------------------|-----------------|
E|------------------------------|-----------------|

3rd Verse (Clean)
  Let Ring-----------------------------------------------------
e|------------------------|--------------|------------0--------|
B|------------0-----------|-----------0--|---------0--0--0-----|
G|---------0-----0--------|--------0-----|------0-----------0--|
D|------2-----------2-----|-----0--------|---------------------|
A|---------------------2--|--3-----------|--2------------------|
E|--0---------------------|--------------|---------------------|

-----------|             Let Ring-------------------------------
e|----------------------|------------0-----------|--------------|
B|----------------------|---------------0--------|-----------0--|
G|--2-----2--4\2--------|---------0--------0-----|--------0--0--|
D|--2--2-----4\2--2-----|------2--------------2--|-----0--------|
A|--0--------0-0-----2--|------------------------|--3-----------|
E|----------------------|--0---------------------|--------------|

--------------------------|                      Let Ring-------------
e|------------0-----------|---------------------|---------------------|
B|---------0-----0--------|---------------------|------------0--------|
G|------0-----------0-----|--2--2--2/4\2--0-----|---------0-----0-----|
D|---------------------0--|--2--2--2/4\2-----2--|------2-----------0--|
A|--2---------------------|--0-------0-0--------|---------------------|
E|------------------------|---------------------|--0------------------|

-----------------------------------------|
e|-----------0--|---------------0--------|--------------------|
B|--------0-----|------------0-----0-----|--------------------|
G|-----0--------|---------0-----------0--|------2---2---------|
D|--------------|------0-----------------|------2---2---------|
A|--3-----------|--2---------------------|--0-------0---------|
E|--------------|------------------------|-------------3--2---|

2nd Pre-Chorus (Overdriven)
                       Let Ring---|        Let Ring--|
e|--------------------|--------------------------|--2--------3-----|
B|-----------------1--|-----------1--3--1--0-----|--3--------3-----|
G|-----2--1--2--1--2--|--------2--------------2--|--2--------0-----|
D|--2--2--2--2--2--2--|-----2--------------------|--0--------0-----|
A|--2--2--2--2--2--0--|--0-----------------------|-----------2-----|
E|--0--0--0--0--0-----|--------------------------|-----0--2--3-----|


                                                  Let Ring---|       Let Ring
e|--------------------------|--------------------|--------------------------|
B|--------------------------|-----------------1--|-----------1--3--1--0-----|
G|--4--4--4--4--4--4--------|-----2--1--2--1--2--|--------2--------------2--|
D|--4--4--4--4--4--4--------|--2--2--2--2--2--2--|-----2--------------------|
A|--2--2--2--2--2--2--------|--2--2--2--2--2--0--|--0-----------------------|
E|--------------------3--2--|--0--0--0--0--0-----|-------------------------| 

   --|
e|--2--------3--|----------------------------------------------|
B|--3--------3--|----------------------------------------------|
G|--2--------0--|--4--4--4--4--4--4--4--4--4--4--4--4--4-------|
D|--0--------0--|--4--4--4--4--4--4--4--4--4--4--4--4--4-------|
A|-----------2--|--2--2--2--2--2--2--2--2--2--2--2--2--2--12\--|
E|-----0--2--3--|----------------------------------------------|

3rd Chorus
e|-----------------|------------------------------|
B|-----------------|------------------------------|
G|--7---9-------4--|------2-----------x---x---9\--|
D|--7---9---4---4--|------2-------2---x---x---9\--|
A|--5---7---0---2--|------0-------2---x---x---7\--|
E|-----------------|--3-------3---0---------------|

e|---------------------|----------------------|
B|---------------------|----------------------|
G|--9---7-------4---2--|--2-------9---7-------|
D|--9---7---4---4---2--|--2-------9---7-------|
A|--7---5---0---2---0--|--0-------7---5-------|
E|---------------------|------3----------12\--|

e|-----------------|------------------------------|
B|-----------------|------------------------------|
G|--7---9-------4--|------2-----------x---x---9\--|
D|--7---9---4---4--|------2-------2---x---x---9\--|
A|--5---7---0---2--|------0-------2---x---x---7\--|
E|-----------------|--3-------3---0---------------|

e|---------------------|---------------------|
B|---------------------|---------------------|
G|--9---7-------4---4--|--2----------9-------|
D|--9---7---4---4---4--|--2-------2--9-------|
A|--7---5---0---2---2--|--0-------2--7-------|
E|---------------------|------3---0-----12\--|

e|-----------------|------------------------------|
B|-----------------|------------------------------|
G|--7---9-------4--|------2-----------x---x---9\--|
D|--7---9---4---4--|------2-------2---x---x---9\--|
A|--5---7---0---2--|------0-------2---x---x---7\--|
E|-----------------|--3-------3---0---------------|

e|---------------------|----------------------|
B|---------------------|----------------------|
G|--9---7-------4---2--|--2-------9---7-------|
D|--9---7---4---4---2--|--2-------9---7-------|
A|--7---5---0---2---0--|--0-------7---5-------|
E|---------------------|------3----------12\--|

e|-----------------|------------------------------|
B|-----------------|------------------------------|
G|--7---9-------4--|------2-----------x---x---9\--|
D|--7---9---4---4--|------2-------2---x---x---9\--|
A|--5---7---0---2--|------0-------2---x---x---7\--|
E|-----------------|--3-------3---0---------------|

e|---------------------|---------------|
B|---------------------|---------------|
G|--9---7-------4---4--|--2------------|
D|--9---7---4---4---4--|--2-------2----|
A|--7---5---0---2---2--|--0-------2----|
E|---------------------|------3---0----|

Outro 
  Let Ring--|              Let Ring             Let Ring
e|-----------------------|----------------------|---------2--------------0--|
B|------9-----9h10p9-----|------5-----5h6p5-----|--2---------2-----------0--|
G|--9------9----------9--|--5------5---------5--|--4------------4--------1--|
D|--9--------------------|--5-------------------|--4------------------------|
A|--7--------------------|--3-------------------|--2---------------2--2-----|
E|-----------------------|----------------------|------------------0--0-----|

Outro solo
e|---------15--17b--17pb--17pb--17pb--17pbr--17--15--|--17--17--15-------|
B|--12/17--------------------------------------------|--------------17b--|
G|---------------------------------------------------|-------------------|
D|---------------------------------------------------|-------------------|
A|---------------------------------------------------|-------------------|
E|---------------------------------------------------|-------------------|

e|--17--17-----------------------------------|--------------------|
B|----------17br--15--17p15------15----------|------------8--10b--|
G|---------------------------16------14--12--|-------6/9----------|
D|-------------------------------------------|--14\---------------|
A|-------------------------------------------|--------------------|
E|-------------------------------------------|--------------------|

e|--10--10--------------------------------------|---------------------|
B|----------10pbr--8--10p8-----8--10pbr--8--10--|--10--8--15b--15pbr--|
G|--------------------------9-------------------|---------------------|
D|----------------------------------------------|---------------------|
A|----------------------------------------------|---------------------|
E|----------------------------------------------|---------------------|

e|------------------------------------|-------------------------------|
B|--12--12p10\8--8--10p8-----8--------|-----3--5--3--5--5b--5b--5pbr--|
G|------------------------9-----0--2--|--4----------------------------|
D|------------------------------------|-------------------------------|
A|------------------------------------|-------------------------------|
E|------------------------------------|-------------------------------|

e|--------------|------------------|---------------------------------------|
B|--3--5--5--3--|------------------|----------12--15b--15b--15b--15br--12--|
G|--------------|--4\2--0--2p0-----|--10/14b-------------------------------|
D|--------------|---------------2--|---------------------------------------|
A|--------------|------------------|---------------------------------------|
E|--------------|------------------|---------------------------------------|

e|--15b------------------|------------12---------12-------|
B|-------8/12--15b--15b--|--15p12h15------15p12------15b--|
G|-----------------------|--------------------------------|
D|-----------------------|--------------------------------|
A|-----------------------|--------------------------------|
E|-----------------------|--------------------------------|

e|--12------------------------------------------|-------------------------|
B|------12--15------12--------------------------|-------------------------|
G|--------------14------12--15p14p12--14p12\11--|--12p11p9--9p7-----7-----|
D|----------------------------------------------|----------------9-----9--|
A|----------------------------------------------|-------------------------|
E|----------------------------------------------|-------------------------|

e|----------------------------------|
B|----------------------------------|
G|----------------------9---9---9\--|
D|--7--7p5-----5--7--5------9---9\--|
A|----------7---------------7---7\--|
E|----------------------------------| 

Guitar II (overdriven)
Intro
e|----------------------|------------------------------|
B|----------------------|------------------------------|
G|-------7---9-------4--|------2-----------x---x---9\--|
D|-------7---9---4---4--|------2-------2---x---x---9\--|
A|--14\--5---7---0---2--|------0-------2---x---x---7\--|
E|----------------------|--3-------3---0---------------|

e|---------------------|----------------------|
B|---------------------|----------------------|
G|--9---7-------4---2--|--2-------9---7-------|
D|--9---7---4---4---2--|--2-------9---7-------|
A|--7---5---0---2---0--|--0-------7---5-------|
E|---------------------|------3----------12\--|

e|-----------------|------------------------------|
B|-----------------|------------------------------|
G|--7---9-------4--|------2-----------x---x---9\--|
D|--7---9---4---4--|------2-------2---x---x---9\--|
A|--5---7---0---2--|------0-------2---x---x---7\--|
E|-----------------|--3-------3---0---------------|

e|---------------------|------------------|
B|---------------------|------------------|
G|--9---7-------4---4--|--2----------9----|
D|--9---7---4---4---4--|--2-------2--9----|
A|--7---5---0---2---2--|--0-------2--7----|
E|---------------------|------3---0-------|

1st Verse (clean)
  Let Ring--------|          Let Ring--------------------------------|
e|------------0------------|-----------0--------|-----------0--------|
B|---------------0---------|--------3-----3-----|--------3-----3-----|
G|---------0---------------|-----------------0--|-----0-----------0--|
D|------2------------------|-----2--------------|--------------------|
A|-------------------0--2--|--3-----------------|--2-----------------|
E|--0----------------------|--------------------|--------------------|

                     Let Ring--------|          Let Ring-----------
e|------------------|------------0------------|-----------0--------|
B|------------------|---------------0---------|--------3-----3-----|
G|--2--2/4\2--------|---------0---------------|-----------------0--|
D|--2--2/4\2--------|------2------------------|-----2--------------|
A|--0--0-0-0--------|-------------------0--2--|--3-----------------|
E|------------3--2--|--0----------------------|--------------------|

  -------------------|
e|-----------0--------|------------------------------|
B|--------3-----3-----|------------------------------|
G|-----------------0--|--2--2--2--2--2---------------|
D|-----2--------------|--2--2--2--2--2---------------|
A|--3-----------------|--0--0--0--0--0---x--x--------|
E|--------------------|------------------x--x---12\--| 

1st Chorus (overdriven)
e|-----------------|------------------------------|
B|-----------------|------------------------------|
G|--7---9-------4--|------2-----------x---x---9\--|
D|--7---9---4---4--|------2-------2---x---x---9\--|
A|--5---7---0---2--|------0-------2---x---x---7\--|
E|-----------------|--3-------3---0---------------|

e|---------------------|----------------------|
B|---------------------|----------------------|
G|--9---7-------4---2--|--2-------9---7-------|
D|--9---7---4---4---2--|--2-------9---7-------|
A|--7---5---0---2---0--|--0-------7---5-------|
E|---------------------|------3----------12\--|

e|-----------------|------------------------------|
B|-----------------|------------------------------|
G|--7---9-------4--|------2-----------x---x---9\--|
D|--7---9---4---4--|------2-------2---x---x---9\--|
A|--5---7---0---2--|------0-------2---x---x---7\--|
E|-----------------|--3-------3---0---------------|

e|---------------------|----------------|
B|---------------------|----------------|
G|--9---7-------4---4--|--2----------9--|
D|--9---7---4---4---4--|--2-------2--9--|
A|--7---5---0---2---2--|--0-------2--7--|
E|---------------------|------3---0-----|

2nd Verse (Clean)
 Let Ring-------|       Let Ring----------------------|             Let Ring
e|------------0--------|---------------|---------------|-------------------|
B|---------------------|---------3-----|---------3-----|-------------------|
G|---------0-----------|------0-----0--|------0-----0--|--2---2/4\2--2-----|
D|------2--------------|---------------|---------------|--2---2/4\2-----2--|
A|---------------0--2--|--3------------|--2------------|-------------------|
E|--0------------------|---------------|---------------|-------------------|

  --------------------------------------------------------
e|------------0-----|---------0--------|---------0--------|
B|---------------0--|------------3-----|------------3-----|
G|---------0--------|---------------0--|------0--------0--|
D|------2-----------|-----2------------|------------------|
A|------------------|--3---------------|--2---------------|
E|--0---------------|------------------|------------------|

  --------------------|
e|----------------------------|
B|------0---------0-----------|
G|---------2---------2--------|
D|------------2---------------|
A|--0-------------------------|
E|----------------------3--2--| 

1st Pre-Chorus (Overdriven)
                       Let Ring---|        Let Ring--|
e|--------------------|--------------------------|--2--------3-----|
B|-----------------1--|-----------1--3--1--0-----|--3--------3-----|
G|-----2--1--2--1--2--|--------2--------------2--|--2--------0-----|
D|--2--2--2--2--2--2--|-----2--------------------|--0--------0-----|
A|--2--2--2--2--2--0--|--0-----------------------|-----------2-----|
E|--0--0--0--0--0-----|--------------------------|-----0--2--3-----|


                                                  Let Ring---|       Let Ring
e|--------------------------|--------------------|--------------------------|
B|--------------------------|-----------------1--|-----------1--3--1--0-----|
G|--4--4--4--4--4--4--------|-----2--1--2--1--2--|--------2--------------2--|
D|--4--4--4--4--4--4--------|--2--2--2--2--2--2--|-----2--------------------|
A|--2--2--2--2--2--2--------|--2--2--2--2--2--0--|--0-----------------------|
E|--------------------3--2--|--0--0--0--0--0-----|-------------------------| 

   --|
e|--2--------3--|----------------------------------------------|
B|--3--------3--|----------------------------------------------|
G|--2--------0--|--4--4--4--4--4--4--4--4--4--4--4--4--4-------|
D|--0--------0--|--4--4--4--4--4--4--4--4--4--4--4--4--4-------|
A|-----------2--|--2--2--2--2--2--2--2--2--2--2--2--2--2--12\--|
E|-----0--2--3--|----------------------------------------------|

2nd Chorus
e|-----------------|------------------------------|
B|-----------------|------------------------------|
G|--7---9-------4--|------2-----------x---x---9\--|
D|--7---9---4---4--|------2-------2---x---x---9\--|
A|--5---7---0---2--|------0-------2---x---x---7\--|
E|-----------------|--3-------3---0---------------|

e|---------------------|----------------------|
B|---------------------|----------------------|
G|--9---7-------4---2--|--2-------9---7-------|
D|--9---7---4---4---2--|--2-------9---7-------|
A|--7---5---0---2---0--|--0-------7---5-------|
E|---------------------|------3----------12\--|

e|-----------------|------------------------------|
B|-----------------|------------------------------|
G|--7---9-------4--|------2-----------x---x---9\--|
D|--7---9---4---4--|------2-------2---x---x---9\--|
A|--5---7---0---2--|------0-------2---x---x---7\--|
E|-----------------|--3-------3---0---------------|

e|---------------------|---------------|
B|---------------------|---------------|
G|--9---7-------4---4--|--2------------|
D|--9---7---4---4---4--|--2-------2----|
A|--7---5---0---2---2--|--0-------2----|
E|---------------------|------3---0----|

Bridge and Main Solo
  Let Ring--|              Let Ring             Let Ring
e|-----------------------|----------------------|---------2--------------0--|
B|------9-----9h10p9-----|------5-----5h6p5-----|--2---------2-----------0--|
G|--9------9----------9--|--5------5---------5--|--4------------4--------1--|
D|--9--------------------|--5-------------------|--4------------------------|
A|--7--------------------|--3-------------------|--2---------------2--2-----|
E|-----------------------|----------------------|------------------0--0-----|

  Let Ring--|                Let Ring             Let Ring
e|--------------------------|---------------------|-------2--------------0--|
B|---------9-----9h10p9-----|-----5-----5h6p5-----|-2-------2------------0--|
G|-----9------9----------9--|-5------5---------5--|-4----------4---------1--|
D|--2--9--------------------|-5-------------------|-4-----------------------|
A|--2--7--------------------|-3-------------------|-2--------------2--2-----|
E|--0-----------------------|---------------------|----------------0--0-----|

  Let Ring--|                Let Ring             Let Ring
e|-------------------------|--------------------|-------2--------------0--0-|
B|---------9-----9h10p9----|-----5-----5h6p5----|-2-------2------------0--0-|
G|-----9------9----------9-|-5------5---------5-|-4----------4---------1--1-|
D|--2--9-------------------|-5------------------|-4-----------------------2-|
A|--2--7-------------------|-3------------------|-2--------------2--2-----2-|
E|--0----------------------|--------------------|----------------0--0-----0-|

3rd Verse (Clean)
  Let Ring------------------------------------------------------------|
e|---------------0--------|---------------------|---------------------|
B|------------0-----0-----|------------0--------|------------0--------|
G|---------0-----------0--|---------0-----0-----|---------0-----0-----|
D|------2-----------------|------0-----------0--|------0-----------0--|
A|------------------------|--3------------------|--2------------------|
E|--0---------------------|---------------------|---------------------|

  Let Ring--------------------------------------------------------------
e|-------------------|---------------------|---------------|------------|
B|-------------------|------------0--------|------------0--|------------|
G|-----2---2/4\2-----|---------0--0--0-----|---------0---\--|------/----|
D|-----2---2/4\2-----|------2-----------2--|------0-------\-|-/\--/-----|
A|--0--0---0-0-0--2--|---------------------|--3------------\|/--\/------|
E|-------------------|--0------------------|---------------|------------|

  ------------------------------------------------------------------
e|---------------|-------------------------|---------------0--------|
B|------------0--|-------------------------|------------0-----0-----|
G|---------0-----|------2-------0-------0--|---------0-----------0--|
D|------0--------|-------------------------|------2-----------------|
A|--2------------|--0----------------------|------------------------|
E|---------------|----------3-------2------|--0---------------------|

  ----------------------------------------|
e|------------------|---------------------|-----------------------|
B|------------0-----|------------0--------|-----------------------|
G|---------0-----0--|---------0-----0-----|--2---2/4\2------------|
D|------0-----------|------0-----------0--|--2---2/4\2------------|
A|--3---------------|--2------------------|--0---0-0-0------------|
E|------------------|---------------------|--------------3---2----|

  Let ring------------------------------------------------------|
e|---------------0--------|------------------|------------------|
B|------------0-----0-----|------------0-----|------------0-----|
G|---------0-----------0--|---------0-----0--|---------0-----0--|
D|------2-----------------|------0-----------|------0-----------|
A|------------------------|--3---------------|--2---------------|
E|--0---------------------|------------------|------------------|

e|--------------0-----------|
B|--------------0-----------|
G|------2-------2-----------|
D|------2-------2-----------|
A|--0-------0---------------|
E|------------------3---2---| 

2nd Pre-Chorus (Overdriven)
                       Let Ring---|        Let Ring--|
e|--------------------|--------------------------|--2--------3-----|
B|-----------------1--|-----------1--3--1--0-----|--3--------3-----|
G|-----2--1--2--1--2--|--------2--------------2--|--2--------0-----|
D|--2--2--2--2--2--2--|-----2--------------------|--0--------0-----|
A|--2--2--2--2--2--0--|--0-----------------------|-----------2-----|
E|--0--0--0--0--0-----|--------------------------|-----0--2--3-----|

                                                  Let Ring---|       Let Ring
e|--------------------------|--------------------|--------------------------|
B|--------------------------|-----------------1--|-----------1--3--1--0-----|
G|--4--4--4--4--4--4--------|-----2--1--2--1--2--|--------2--------------2--|
D|--4--4--4--4--4--4--------|--2--2--2--2--2--2--|-----2--------------------|
A|--2--2--2--2--2--2--------|--2--2--2--2--2--0--|--0-----------------------|
E|--------------------3--2--|--0--0--0--0--0-----|-------------------------| 

   --|
e|--2--------3--|----------------------------------------------|
B|--3--------3--|----------------------------------------------|
G|--2--------0--|--4--4--4--4--4--4--4--4--4--4--4--4--4-------|
D|--0--------0--|--4--4--4--4--4--4--4--4--4--4--4--4--4-------|
A|-----------2--|--2--2--2--2--2--2--2--2--2--2--2--2--2--12\--|
E|-----0--2--3--|----------------------------------------------|

3rd Chorus 
e|-----------------|------------------------------|
B|-----------------|------------------------------|
G|--7---9-------4--|------2-----------x---x---9\--|
D|--7---9---4---4--|------2-------2---x---x---9\--|
A|--5---7---0---2--|------0-------2---x---x---7\--|
E|-----------------|--3-------3---0---------------|

e|---------------------|----------------------|
B|---------------------|----------------------|
G|--9---7-------4---2--|--2-------9---7-------|
D|--9---7---4---4---2--|--2-------9---7-------|
A|--7---5---0---2---0--|--0-------7---5-------|
E|---------------------|------3----------12\--|

e|-----------------|------------------------------|
B|-----------------|------------------------------|
G|--7---9-------4--|------2-----------x---x---9\--|
D|--7---9---4---4--|------2-------2---x---x---9\--|
A|--5---7---0---2--|------0-------2---x---x---7\--|
E|-----------------|--3-------3---0---------------|

e|---------------------|---------------------|
B|---------------------|---------------------|
G|--9---7-------4---4--|--2----------9-------|
D|--9---7---4---4---4--|--2-------2--9-------|
A|--7---5---0---2---2--|--0-------2--7-------|
E|---------------------|------3---0-----12\--|

e|-----------------|------------------------------|
B|-----------------|------------------------------|
G|--7---9-------4--|------2-----------x---x---9\--|
D|--7---9---4---4--|------2-------2---x---x---9\--|
A|--5---7---0---2--|------0-------2---x---x---7\--|
E|-----------------|--3-------3---0---------------|

e|---------------------|----------------------|
B|---------------------|----------------------|
G|--9---7-------4---2--|--2-------9---7-------|
D|--9---7---4---4---2--|--2-------9---7-------|
A|--7---5---0---2---0--|--0-------7---5-------|
E|---------------------|------3----------12\--|

e|-----------------|------------------------------|
B|-----------------|------------------------------|
G|--7---9-------4--|------2-----------x---x---9\--|
D|--7---9---4---4--|------2-------2---x---x---9\--|
A|--5---7---0---2--|------0-------2---x---x---7\--|
E|-----------------|--3-------3---0---------------|

e|---------------------|---------------|
B|---------------------|---------------|
G|--9---7-------4---4--|--2------------|
D|--9---7---4---4---4--|--2-------2----|
A|--7---5---0---2---2--|--0-------2----|
E|---------------------|------3---0----|

Outro 
  Let Ring--|              Let Ring             Let Ring
e|-----------------------|----------------------|---------2--------------0--|
B|------9-----9h10p9-----|------5-----5h6p5-----|--2---------2-----------0--|
G|--9------9----------9--|--5------5---------5--|--4------------4--------1--|
D|--9--------------------|--5-------------------|--4------------------------|
A|--7--------------------|--3-------------------|--2---------------2--2-----|
E|-----------------------|----------------------|------------------0--0-----|

  Let Ring--|                Let Ring             Let Ring
e|--------------------------|---------------------|-------2--------------0--|
B|---------9-----9h10p9-----|-----5-----5h6p5-----|-2-------2------------0--|
G|-----9------9----------9--|-5------5---------5--|-4----------4---------1--|
D|--2--9--------------------|-5-------------------|-4-----------------------|
A|--2--7--------------------|-3-------------------|-2--------------2--2-----|
E|--0-----------------------|---------------------|----------------0--0-----|

  Let Ring--|                Let Ring             Let Ring
e|--------------------------|---------------------|-------2--------|
B|---------9-----9h10p9-----|-----5-----5h6p5-----|-2-------2------|
G|-----9------9----------9--|-5------5---------5--|-4----------4---|
D|--2--9--------------------|-5-------------------|-4--------------|
A|--2--7--------------------|-3-------------------|-2--------------|
E|--0-----------------------|---------------------|----------------|

e|--------------------------------------|
B|--------------------------------------|
G|--------------------------------------|
D|--2--2--2--2--2--2--2--2--2--2--2--2--|
A|--2--2--2--2--2--2--2--2--2--2--2--2--|
E|--0--0--0--0--0--0--0--0--0--0--0--0--|

e|--------------------------------------|
B|--------------------------------------|
G|--7--7--7--7--7--7--7--7--7--7--7--7--|
D|--7--7--7--7--7--7--7--7--7--7--7--7--|
A|--9--9--9--9--9--9--9--9--9--9--9--9--|
E|--0--0--0--0--0--0--0--0--0--0--0--0--| 

e|--------------------------------------|
B|--------------------------------------|
G|--7--7--7--7--7--7--7--7--7--7--7--7--|
D|--7--7--7--7--7--7--7--7--7--7--7--7--|
A|--5--5--5--5--5--5--5--5--5--5--5--5--|
E|--------------------------------------| 

e|--------------------|--------------------|
B|--------------------|--------------------|
G|--5--5--5--5--5--5--|--7--7--7--7--7--7--|
D|--5--5--5--5--5--5--|--7--7--7--7--7--7--|
A|--3--3--3--3--3--3--|--5--5--5--5--5--5--|
E|--------------------|--------------------|

e|--------------------------------------------------------------------------|
B|--------------------------------------------------------------------------|
G|--7--7--7--7--7--7--7--7--7--7--7--7--7--7--7--7--7--7--7--7--7--7--7--7--|
D|--7--7--7--7--7--7--7--7--7--7--7--7--7--7--7--7--7--7--7--7--7--7--7--7--|
A|--9--9--9--9--9--9--9--9--9--9--9--9--9--9--9--9--9--9--9--9--9--9--9--9--|
E|--0--0--0--0--0--0--0--0--0--0--0--0--0--0--0--0--0--0--0--0--0--0--0--0--| 

e|--------------------------------------|--------------------|
B|--------------------------------------|--------------------|
G|--7--7--7--7--7--7--7--7--7--7--7--7--|--5----7--------9\--|
D|--7--7--7--7--7--7--7--7--7--7--7--7--|--5----7--------9\--|
A|--5--5--5--5--5--5--5--5--5--5--5--5--|--3----5---2----7\--|
E|--------------------------------------|-----------0--------|

************************************

| /   slide up
| \   slide down
| h   hammer-on
| p   pull-off
| ~   vibrato
| +   harmonic
| x   Mute note
| b   Bend
| pb  Pre-bend
| br  Bend release
| pbr Pre-bend release
| brb Bend release bend
| P+  Pinch Harmonic
************************************
Intro

D  E  A  B  G  A  G  E

E  D  A  B  A  G  E  D

D  E  A  B  G  A  G  E

E  D  A  B  A  G  E  D


1st Verse

Em                         Cmaj9
  A young man lies with a needle in his arm 

Em7                  Aadd9  Badd9  Aadd9  N.C.
  China white in his hand 

Em                            Cmaj7
  say a little prayer for his unlucky soul 

Em7                A
  It's so sad, so sad 

1st Chorus

            D    E  A  B  G  A  G  E
Fire Of The Dragon 

E  D  A  B  A  G  E  D

            D    E  A  B  G  A  G  E
Fire Of The Dragon 

E  D  A  B  A  G  E  D

2nd Verse

Em                          Cmaj7
  The scene was set and the time was right 

Em7                           Aadd9   Badd9  Aadd9  N.C.
   a pretty girl walked the streets 

Em                               Cmaj7
  lookin' for a hand out turn a trick or two 

Em7                              A
  and she'll get just what she needs 

1st Pre-chorus
          
           E  Esus  E  Esus E  Am
cause it's the outlaw in the city 

D    G         B
 Voodoo in our town 

E  Esus  E  Esus  E          Am
 steals the life from those you pity 

D                G          B
 and leaves them under the ground 

2nd Chorus

            D    E  A  B  G  A  G  E
Fire Of The Dragon 

E    D   A    B   A     G  E     D
he left his mark all over your hands 

      D    E  A  B  G  A  G  E
dirty dragon 

E    D     A B        A  G  E   
and took 'em to their Promised land 

Bridge and Solo

E   C   Badd9   E

E   C   Badd9   E

E   C   Badd9   E

3rd Verse

Em                Cmaj7
  Cat Brown has a hit the streets 

Em7                   Aadd9   Badd9   Aadd9  N.C.
  Middle East struck again 

Em                             Cmaj7
  when you're shakin' and your body's so weak 

Em7                       Aadd9   N.C.
  it seems you just can't win 

Em                        Cmaj7
  so at night when you're naked with your bride 

Em7                      Aadd9  Badd9  Aadd9  N.C.
  think about what I've said 

Em                                Cmaj7
 think about the young man and his lady love 

Em7               A
  it's so sad, so bad 


2nd Pre-chorus
          
           E  Esus  E  Esus E  Am
cause it's the outlaw in the city 

D    G         B
 Voodoo in our town 

E  Esus  E  Esus  E          Am
 steals the life from those you pity 

D                G          B
 and leaves them under the ground 


3rd Chorus

            D    E  A  B  G  A  G  E
Fire Of The Dragon 

E    D   A    B   A     G  E     D
he left his mark all over your hands 

      D    E  A  B  G  A  G  E
dirty dragon 

E    D     A B        A  G  E   
and took 'em to their Promised land 


      D    E  A  B  G  A  G  E
Dirty Dragon 

E    D   A    B   A     G  E     D
he left his mark all over your hands 

      D    E  A  B  G  A  G  E
dirty dragon 

E    D     A B        A  G  E   
and took 'em to their Promised land 

Outro

E   C   Badd9   E

E   C   Badd9   E

E   C   Badd9   E

E  D   C  D  E  D  C  D  E



Добавлено: 22.02.2012
Другие материалы по этой песне:

Страница создана 22.02.2012
http://primanota.ru/blackfoot/fire-of-the-dragon-chords.htm
Привет, Гость.
Предлагаем пройти революционный курс по гитаре.
Подарок от PrimaNota.Ru, забирай!