PrimaNota.ru - самый крупный в мире бесплатный архив песенных текстов, аккордов, табулатур и нот


Blackfoot - Baby Blue - таба, видео

Регистрация Запомнить меня
Войти через:  Facebook Google Twitter Vk Yandex Mail.ru

Blackfoot - Baby Blue - таба, видео

Печатать
Просмотров: 88
-----------------------------------------------------------------------------
                            Baby Blue- Blackfoot
                                Strikes-1979
               Words and Music by Rick Medlocke and Jakson Spires
-----------------------------------------------------------------------------
Tabbed by: Duane Baldwin
E-mail: duaneandjulie@gmail.com

Tuning: Standard

Guitar I (Overdriven)

Intro

       V
e|-----0---------------------------------------|
B|-----0---------------------------------------|
G|---------------------------------------------|
D|---------------6--------7--7\6-----6/7--7/9--|
A|---------------4--------5--5\4--0--4/5--5/7--|
E|--0------x--0-----x--0-----------------------|

       V
e|-----0---------------------------------------|
B|-----0---------------------------------------|
G|---------------------------------------------|
D|---------------6--------7--0--------------2--|
A|---------------4--------5-----4p0------------|
E|--0------x--0-----x--0-------------3p2p0-----|

       V
e|-----0---------------------------------------|
B|-----0---------------------------------------|
G|---------------------------------------------|
D|---------------6--------7--7\6-----6/7--7/9--|
A|---------------4--------5--5\4--0--4/5--5/7--|
E|--0------x--0-----x--0-----------------------|

       V
e|-----0---------------------------|
B|-----0---------------------------|
G|---------------------2-----------|
D|---------------6-----2-----------|
A|---------------4--x--0-----------|
E|--0------x--0-----------3--2--0--|

1st Verse

       V
e|-----0---------------------------------------|
B|-----0---------------------------------------|
G|---------------------------------------------|
D|---------------6--------7--7\6-----6/7--7/9--|
A|---------------4--------5--5\4--0--4/5--5/7--|
E|--0------x--0-----x--0-----------------------|

       V
e|-----0---------------------------------------|
B|-----0---------------------------------------|
G|---------------------------------------------|
D|---------------6--------7--0--------------2--|
A|---------------4--------5-----4p0------------|
E|--0------x--0-----x--0-------------3p2p0-----|

       V
e|-----0---------------------------------------|
B|-----0---------------------------------------|
G|---------------------------------------------|
D|---------------6--------7--7\6-----6/7--7/9--|
A|---------------4--------5--5\4--0--4/5--5/7--|
E|--0------x--0-----x--0-----------------------|

       V
e|-----0--------------------------|
B|-----0--------------------------|
G|------------------------7----7--|
D|---------------6--------7----7--|
A|---------------4--------5----5--|
E|--0------x--0-----x--0----------|

1st Pre Chorus

                  L.R.
e|-------------|--------------------------|
B|----------3--|--3/5---5---3---3/5--5\3--|
G|--2---0---2--|--2/4-------2---2/4--4\2--|
D|--2---0---0--|--0---------0-------------|
A|--0----------|--------------------------|
E|-------------|--------------------------|

       V
e|-----0---------------------------------------|
B|-----0---------------------------------------|
G|---------------------------------------------|
D|---------------6--------7--7\6-----6/7--7/9--|
A|---------------4--------5--5\4--0--4/5--5/7--|
E|--0------x--0-----x--0-----------------------|

       V
e|-----0--------------------------|
B|-----0--------------------------|
G|------------------------7----7--|
D|---------------6--------7----7--|
A|---------------4--------5----5--|
E|--0------x--0-----x--0----------|

1st Chorus

              V
e|-----------------------|---------------------|
B|------------5---x---4--|---------------------|
G|--4---2h4---4---x---4--|--6---6---2---6---7--|
D|--4---2h4---4---x---4--|--6---6---2---6---7--|
A|--2--------------------|--4---4---0---4---5--|
E|-----------------------|---------------------|


       V
e|-----0---------------------------------------|
B|-----0---------------------------------------|
G|---------------------------------------------|
D|---------------6--------7--0--------------2--|
A|---------------4--------5-----4p0------------|
E|--0------x--0-----x--0-------------3p2p0-----|

       V
e|-----0---------------------------|
B|-----0---------------------------|
G|---------------------2-----------|
D|---------------6-----2-----------|
A|---------------4--x--0-----------|
E|--0------x--0-----------3--2--0--|

2nd Verse

       V
e|-----0---------------------------------------|
B|-----0---------------------------------------|
G|---------------------------------------------|
D|---------------6--------7--7\6-----6/7--7/9--|
A|---------------4--------5--5\4--0--4/5--5/7--|
E|--0------x--0-----x--0-----------------------|

       V
e|-----0---------------------------------------|
B|-----0---------------------------------------|
G|---------------------------------------------|
D|---------------6--------7--0--------------2--|
A|---------------4--------5-----4p0------------|
E|--0------x--0-----x--0-------------3p2p0-----|

       V
e|-----0---------------------------------------|
B|-----0---------------------------------------|
G|---------------------------------------------|
D|---------------6--------7--7\6-----6/7--7/9--|
A|---------------4--------5--5\4--0--4/5--5/7--|
E|--0------x--0-----x--0-----------------------|

       V
e|-----0--------------------------|
B|-----0--------------------------|
G|------------------------7----7--|
D|---------------6--------7----7--|
A|---------------4--------5----5--|
E|--0------x--0-----x--0----------|

2nd Pre Chorus

                  L.R.
e|-------------|--------------------------|
B|----------3--|--3/5---5---3---3/5--5\3--|
G|--2---0---2--|--2/4-------2---2/4--4\2--|
D|--2---0---0--|--0---------0-------------|
A|--0----------|--------------------------|
E|-------------|--------------------------|

       V
e|-----0---------------------------------------|
B|-----0---------------------------------------|
G|---------------------------------------------|
D|---------------6--------7--7\6-----6/7--7/9--|
A|---------------4--------5--5\4--0--4/5--5/7--|
E|--0------x--0-----x--0-----------------------|

       V
e|-----0--------------------------|
B|-----0--------------------------|
G|------------------------7----7--|
D|---------------6--------7----7--|
A|---------------4--------5----5--|
E|--0------x--0-----x--0----------|

2nd Chorus

              V
e|-----------------------|---------------------|
B|------------5---x---4--|---------------------|
G|--4---2h4---4---x---4--|--6---6---2---6---7--|
D|--4---2h4---4---x---4--|--6---6---2---6---7--|
A|--2--------------------|--4---4---0---4---5--|
E|-----------------------|---------------------|

       V          		                     V
e|-----0---------------------------------------|-----0------------------|
B|-----0---------------------------------------|-----0------------------|
G|---------------------------------------------|---------------------2--|
D|---------------6--------7--0--------------2--|---------------6-----2--|
A|---------------4--------5-----4p0------------|---------------4--x--0--|
E|--0------x--0-----x--0-------------3p2p0-----|--0------x--0-----------|

Guitar Solo

e|-------------------------------------|-------------------------------------|
B|--4---5---4---5---4---5---4---5---4--|--4---5---4---5---4---5---4---5---4--|
G|--4---4---4---4---4---4---4---4---4--|--4---4---4---4---4---4---4---4---4--|
D|--4---6---4---6---4---6---4---6---4--|--4---6---4---6---4---6---4---6---4--|
A|-------------------------------------|--2----------------------------------|
E|-------------------------------------|-------------------------------------|

e|--2---2---2--|-------------------------|
B|--3---3---3--|--2---2---3---2---3---2--|
G|--2---2---2--|--2---2---2---2---2---2--|
D|--0---0---0--|--2---2---4---2---4---2--|
A|-------------|--0----------------------|
E|-------------|-------------------------|

e|-------------------------------------|-------------------------------------|
B|--4---5---4---5---4---5---4---5---4--|--4---5---4---5---4---5---4---5---4--|
G|--4---4---4---4---4---4---4---4---4--|--4---4---4---4---4---4---4---4---4--|
D|--4---6---4---6---4---6---4---6---4--|--4---6---4---6---4---6---4---6---4--|
A|-------------------------------------|--2----------------------------------|
E|-------------------------------------|-------------------------------------|

e|--2---2---2--|----------------|
B|--3---3---3--|----------------|
G|--2---2---2--|--2----2-----7--|
D|--0---0---0--|--2----2-----7--|
A|-------------|--0----0-----5--|
E|-------------|----------------|

Intro Reprise

e|-------------------------------------------------|
B|-------------------------------------------------|
G|-------------------------------------------------|
D|--2---2-----------6---------7--7\6-----6/7--7/9--|
A|--2---2-----------4---------5--5\4--0--4/5--5/7--|
E|--0---0----x--0------x--0------------------------|

       V
e|-----0---------------------------|
B|-----0---------------------------|
G|---------------------2-----------|
D|---------------6-----2-----------|
A|---------------4--x--0-----------|
E|--0------x--0-----------3--2--0--|

3rd Verse

       V
e|-----0---------------------------------------|
B|-----0---------------------------------------|
G|---------------------------------------------|
D|---------------6--------7--7\6-----6/7--7/9--|
A|---------------4--------5--5\4--0--4/5--5/7--|
E|--0------x--0-----x--0-----------------------|

       V
e|-----0---------------------------------------|
B|-----0---------------------------------------|
G|---------------------------------------------|
D|---------------6--------7--0--------------2--|
A|---------------4--------5-----4p0------------|
E|--0------x--0-----x--0-------------3p2p0-----|

       V
e|-----0---------------------------------------|
B|-----0---------------------------------------|
G|---------------------------------------------|
D|---------------6--------7--7\6-----6/7--7/9--|
A|---------------4--------5--5\4--0--4/5--5/7--|
E|--0------x--0-----x--0-----------------------|

       V
e|-----0--------------------------|
B|-----0--------------------------|
G|------------------------7----7--|
D|---------------6--------7----7--|
A|---------------4--------5----5--|
E|--0------x--0-----x--0----------|

3rd Pre Chorus

                  L.R
e|-------------|--------------------------|
B|----------3--|--3/5---5---3---3/5--5\3--|
G|--2---0---2--|--2/4-------2---2/4--4\2--|
D|--2---0---0--|--0---------0-------------|
A|--0----------|--------------------------|
E|-------------|--------------------------|

       V
e|-----0---------------------------------------|
B|-----0---------------------------------------|
G|---------------------------------------------|
D|---------------6--------7--7\6-----6/7--7/9--|
A|---------------4--------5--5\4--0--4/5--5/7--|
E|--0------x--0-----x--0-----------------------|

       V
e|-----0--------------------------|
B|-----0--------------------------|
G|------------------------7----7--|
D|---------------6--------7----7--|
A|---------------4--------5----5--|
E|--0------x--0-----x--0----------|

3rd Chorus

              V
e|-----------------------|---------------------|
B|------------5---x---4--|---------------------|
G|--4---2h4---4---x---4--|--6---6---2---6---7--|
D|--4---2h4---4---x---4--|--6---6---2---6---7--|
A|--2--------------------|--4---4---0---4---5--|
E|-----------------------|---------------------|

       V                                             V
e|-----0---------------------------------------|-----0-----------------------|
B|-----0---------------------------------------|-----0-----------------------|
G|---------------------------------------------|------------------------7--7-|
D|---------------6--------7--0--------------2--|---------------6--------7--7-|
A|---------------4--------5-----4p0------------|---------------4--------5--5-|
E|--0------x--0-----x--0-------------3p2p0-----|--0------x--0-----x--0-------|

Chorus Reprise

              V
e|-----------------------|---------------------|
B|------------5---x---4--|---------------------|
G|--4---2h4---4---x---4--|--6---6---2---6---7--|
D|--4---2h4---4---x---4--|--6---6---2---6---7--|
A|--2--------------------|--4---4---0---4---5--|
E|-----------------------|---------------------|

Outro
                	                                                                        
                                                 V
e|--------------------------------------------|-----0------------------------|
B|--------------------------------------------|-----0------------------------|
G|--------------------------------------------|--------------------2---------|
D|--2--2-----------6-----7--0--------------2--|--------------6-----2---------|
A|--2--2-----------4-----5-----4p0------------|--------------4--x--0---------|
E|--0--0--x--0--x-----0-------------3p2p0-----|--0-----x--0-----------0--3--2|

       V                                            V
e|-----0--------------------------------------|-----0----------------------|
B|-----0--------------------------------------|-----0----------------------|
G|--------------------------------------------|-------------------------9--|
D|--2--------------6-----7--0--------------2--|--------------6-----2----9--|
A|--2--------------4-----5-----4p0------------|--------------4-----2----7--|
E|--0-----x--0--x-----0-------------3p2p0-----|--0-----x--0-----x--0-------|

Guitar II (Over Driven)

Intro

e|--------------------------------------|
B|--------------------------------------|
G|-----9-----6-----7--7\6-----6/7--7/9--|
D|-----9-----6-----7--7\6-----6/7--7/9--|
A|--7--7--4--4--5--5--5\4--0--4/5--5/7--|
E|--0--0--0-----0-----------------------|

e|--------------------------------------|
B|--------------------------------------|
G|-----9-----6-----7--7\6-----6/7--7/9--|
D|-----9-----6-----7--7\6-----6/7--7/9--|
A|--7--7--4--4--5--5--5\4--0--4/5--5/7--|
E|--0--0--0-----0-----------------------|

e|--------------------------------------|-------------------|
B|--------------------------------------|-------------------|
G|-----9-----6-----7--7\6-----6/7--7/9--|-----9-----6---2---|
D|-----9-----6-----7--7\6-----6/7--7/9--|-----9-----6---2---|
A|--7--7--4--4--5--5--5\4--0--4/5--5/7--|--7--7--4--4---0---|
E|--0--0--0-----0-----------------------|--0--0--0----------|


1st Verse

e|--------------------------------------|
B|--------------------------------------|
G|-----9-----6-----7--7\6-----6/7--7/9--|
D|-----9-----6-----7--7\6-----6/7--7/9--|
A|--7--7--4--4--5--5--5\4--0--4/5--5/7--|
E|--0--0--0-----0-----------------------|

e|--------------------------------------|
B|--------------------------------------|
G|-----9-----6-----7--7\6-----6/7--7/9--|
D|-----9-----6-----7--7\6-----6/7--7/9--|
A|--7--7--4--4--5--5--5\4--0--4/5--5/7--|
E|--0--0--0-----0-----------------------|

e|--------------------------------------|
B|--------------------------------------|
G|-----9-----6-----7--7\6-----6/7--7/9--|
D|-----9-----6-----7--7\6-----6/7--7/9--|
A|--7--7--4--4--5--5--5\4--0--4/5--5/7--|
E|--0--0--0-----0-----------------------|

e|--------------------------------------|
B|--------------------------------------|
G|-----9-----6-----7--7\6-----6/7--7/9--|
D|-----9-----6-----7--7\6-----6/7--7/9--|
A|--7--7--4--4--5--5--5\4--0--4/5--5/7--|
E|--0--0--0-----0-----------------------|


1st Pre Chorus

e|------------|------------------|
B|--------3---|--5--3--3/5--5\3--|
G|--2-----2---|--4--2--2/4--4\2--|
D|--2-----0---|--2--0------------|
A|--0---------|------------------|
E|------------|------------------|

e|--------------------------------------|
B|--------------------------------------|
G|-----9-----6-----7--7\6-----6/7--7/9--|
D|-----9-----6-----7--7\6-----6/7--7/9--|
A|--7--7--4--4--5--5--5\4--0--4/5--5/7--|
E|--0--0--0-----0-----------------------|

e|--------------------------------------|
B|--------------------------------------|
G|-----9-----6-----7--7\6-----6/7--7/9--|
D|-----9-----6-----7--7\6-----6/7--7/9--|
A|--7--7--4--4--5--5--5\4--0--4/5--5/7--|
E|--0--0--0-----0-----------------------|


1st Chorus

        V       V
e|---------------------|-------------|
B|------5---5-------4--|-------------|
G|--4---4---4---4---4--|--6---2---7--|
D|--4---4---4---4---4--|--6---2---7--|
A|--2-----------2------|--4---0---5--|
E|---------------------|-------------|

e|--------------------------------------|-------------------|
B|--------------------------------------|-------------------|
G|-----9-----6-----7--7\6-----6/7--7/9--|-----9-----6---2---|
D|-----9-----6-----7--7\6-----6/7--7/9--|-----9-----6---2---|
A|--7--7--4--4--5--5--5\4--0--4/5--5/7--|--7--7--4--4---0---|
E|--0--0--0-----0-----------------------|--0--0--0----------|

2nd Verse

e|--------------------------------------|
B|--------------------------------------|
G|-----9-----6-----7--7\6-----6/7--7/9--|
D|-----9-----6-----7--7\6-----6/7--7/9--|
A|--7--7--4--4--5--5--5\4--0--4/5--5/7--|
E|--0--0--0-----0-----------------------|

e|--------------------------------------|
B|--------------------------------------|
G|-----9-----6-----7--7\6-----6/7--7/9--|
D|-----9-----6-----7--7\6-----6/7--7/9--|
A|--7--7--4--4--5--5--5\4--0--4/5--5/7--|
E|--0--0--0-----0-----------------------|

e|--------------------------------------|
B|--------------------------------------|
G|-----9-----6-----7--7\6-----6/7--7/9--|
D|-----9-----6-----7--7\6-----6/7--7/9--|
A|--7--7--4--4--5--5--5\4--0--4/5--5/7--|
E|--0--0--0-----0-----------------------|

e|--------------------------------------|
B|--------------------------------------|
G|-----9-----6-----7--7\6-----6/7--7/9--|
D|-----9-----6-----7--7\6-----6/7--7/9--|
A|--7--7--4--4--5--5--5\4--0--4/5--5/7--|
E|--0--0--0-----0-----------------------|

2nd Pre Chorus

e|------------|------------------|
B|--------3---|--5--3--3/5--5\3--|
G|--2-----2---|--4--2--2/4--4\2--|
D|--2-----0---|--2--0------------|
A|--0---------|------------------|
E|------------|------------------|

e|--------------------------------------|
B|--------------------------------------|
G|-----9-----6-----7--7\6-----6/7--7/9--|
D|-----9-----6-----7--7\6-----6/7--7/9--|
A|--7--7--4--4--5--5--5\4--0--4/5--5/7--|
E|--0--0--0-----0-----------------------|

e|--------------------------------------|
B|--------------------------------------|
G|-----9-----6-----7--7\6-----6/7--7/9--|
D|-----9-----6-----7--7\6-----6/7--7/9--|
A|--7--7--4--4--5--5--5\4--0--4/5--5/7--|
E|--0--0--0-----0-----------------------|

2nd Chorus


        V       V
e|---------------------|-------------|
B|------5---5-------4--|-------------|
G|--4---4---4---4---4--|--6---2---7--|
D|--4---4---4---4---4--|--6---2---7--|
A|--2-----------2------|--4---0---5--|
E|---------------------|-------------|

e|--------------------------------------|-------------------|
B|--------------------------------------|-------------------|
G|-----9-----6-----7--7\6-----6/7--7/9--|-----9-----6---2---|
D|-----9-----6-----7--7\6-----6/7--7/9--|-----9-----6---2---|
A|--7--7--4--4--5--5--5\4--0--4/5--5/7--|--7--7--4--4---0---|
E|--0--0--0-----0-----------------------|--0--0--0----------|

Guitar Solo

e|---------------------------------------|----------------------------------|
B|--4--5--4--5--5br--4--5--4--5--5--5/7--|--4--5--4--5--5br--4--5--4--------|
G|---------------------------------------|----------------------------4--4--|
D|---------------------------------------|----------------------------------|
A|---------------------------------------|----------------------------------|
E|---------------------------------------|----------------------------------|

e|--3/5-----5--|-------------|---------------------------------------|
B|-------------|--7br-----5--|--4--5--4--5--5br--4--5--4--5--5--5/7--|
G|-------------|-------------|---------------------------------------|
D|-------------|-------------|---------------------------------------|
A|-------------|-------------|---------------------------------------|
E|-------------|-------------|---------------------------------------|

e|---------------------------------------|
B|--4--5--4--5--5br--4--5--4--5--5--5/7--|
G|---------------------------------------|
D|---------------------------------------|
A|---------------------------------------|
E|---------------------------------------|

e|-----------------|------------------------12--14--|----14b----|
B|--12/14-----12b--|--12br--10--12--13--14----------|-----------|
G|-----------------|--------------------------------|-----------|
D|-----------------|--------------------------------|-----------|
A|-----------------|--------------------------------|-----------|
E|-----------------|--------------------------------|-----------|

* Harmony to Solo

e|-----------------------------|-----------------------------|
B|-----5-----5-----5--4--------|-----5-----5-----5--4--------|
G|--4-----4-----4--------4-----|--4-----4-----4--------4-----|
D|--------------------------4--|--------------------------4--|
A|-----------------------------|-----------------------------|
E|-----------------------------|-----------------------------|

e|------------|------------|-----------------------------|
B|------------|------------|-----5-----5-----5--4--------|
G|------------|------------|--4-----4-----4--------4-----|
D|------------|------------|--------------------------4--|
A|------------|------------|-----------------------------|
E|------------|------------|-----------------------------|

e|-----------------------------|---5-----5--|------------|---10b----|--------|
B|-----5-----5-----5--4--------|------------|--7br----5--|----------|--------|
G|--4-----4-----4--------4-----|------------|------------|----------|--------|
D|--------------------------4--|------------|------------|----------|--------|
A|-----------------------------|------------|------------|----------|--------|
E|-----------------------------|------------|------------|----------|--------|

3rd Verse

e|--------------------------------------|
B|--------------------------------------|
G|-----9-----6-----7--7\6-----6/7--7/9--|
D|-----9-----6-----7--7\6-----6/7--7/9--|
A|--7--7--4--4--5--5--5\4--0--4/5--5/7--|
E|--0--0--0-----0-----------------------|

e|--------------------------------------|
B|--------------------------------------|
G|-----9-----6-----7--7\6-----6/7--7/9--|
D|-----9-----6-----7--7\6-----6/7--7/9--|
A|--7--7--4--4--5--5--5\4--0--4/5--5/7--|
E|--0--0--0-----0-----------------------|

e|--------------------------------------|
B|--------------------------------------|
G|-----9-----6-----7--7\6-----6/7--7/9--|
D|-----9-----6-----7--7\6-----6/7--7/9--|
A|--7--7--4--4--5--5--5\4--0--4/5--5/7--|
E|--0--0--0-----0-----------------------|

e|--------------------------------------|
B|--------------------------------------|
G|-----9-----6-----7--7\6-----6/7--7/9--|
D|-----9-----6-----7--7\6-----6/7--7/9--|
A|--7--7--4--4--5--5--5\4--0--4/5--5/7--|
E|--0--0--0-----0-----------------------|

3rd Pre Chorus

e|------------|------------------|
B|--------3---|--5--3--3/5--5\3--|
G|--2-----2---|--4--2--2/4--4\2--|
D|--2-----0---|--2--0------------|
A|--0---------|------------------|
E|------------|------------------|

e|--------------------------------------|
B|--------------------------------------|
G|-----9-----6-----7--7\6-----6/7--7/9--|
D|-----9-----6-----7--7\6-----6/7--7/9--|
A|--7--7--4--4--5--5--5\4--0--4/5--5/7--|
E|--0--0--0-----0-----------------------|

e|--------------------------------------|
B|--------------------------------------|
G|-----9-----6-----7--7\6-----6/7--7/9--|
D|-----9-----6-----7--7\6-----6/7--7/9--|
A|--7--7--4--4--5--5--5\4--0--4/5--5/7--|
E|--0--0--0-----0-----------------------|

3rd Chorus

        V       V
e|---------------------|-------------|
B|------5---5-------4--|-------------|
G|--4---4---4---4---4--|--6---2---7--|
D|--4---4---4---4---4--|--6---2---7--|
A|--2-----------2------|--4---0---5--|
E|---------------------|-------------|

e|--------------------------------------|
B|--------------------------------------|
G|-----9-----6-----7--7\6-----6/7--7/9--|
D|-----9-----6-----7--7\6-----6/7--7/9--|
A|--7--7--4--4--5--5--5\4--0--4/5--5/7--|
E|--0--0--0-----0-----------------------|

e|--------------------------------------|
B|--------------------------------------|
G|-----9-----6-----7--7\6-----6/7--7/9--|
D|-----9-----6-----7--7\6-----6/7--7/9--|
A|--7--7--4--4--5--5--5\4--0--4/5--5/7--|
E|--0--0--0-----0-----------------------|

Chorus Reprise

         V      V
e|---------------------|-------------|
B|------5---5-------4--|-------------|
G|--4---4---4---4---4--|--6---2---7--|
D|--4---4---4---4---4--|--6---2---7--|
A|--2-----------2------|--4---0---5--|
E|---------------------|-------------|

Outro

e|--------------------------------------|-------------------|
B|--------------------------------------|-------------------|
G|-----9-----6-----7--7\6-----6/7--7/9--|-----9-----6---2---|
D|-----9-----6-----7--7\6-----6/7--7/9--|-----9-----6---2---|
A|--7--7--4--4--5--5--5\4--0--4/5--5/7--|--7--7--4--4---0---|
E|--0--0--0-----0-----------------------|--0--0--0----------|

e|--------------------------------------|-------------------|
B|--------------------------------------|-------------------|
G|-----9-----6-----7--7\6-----6/7--7/9--|-----9-----6---9---|
D|-----9-----6-----7--7\6-----6/7--7/9--|-----9-----6---9---|
A|--7--7--4--4--5--5--5\4--0--4/5--5/7--|--7--7--4--4---7---|
E|--0--0--0-----0-----------------------|--0--0--0----------|

************************************

| /   slide up
| \   slide down
| h   hammer-on
| p   pull-off
| ~   vibrato
| +   harmonic
| x   Mute note
| b   Bend
| pb  Pre-bend
| br  Bend release
| pbr Pre-bend release
| brb Bend release bend
|  V  Up Stroke
************************************
Intro

E  Db  D  Db  A  Db  D  E

E  Db  D  Db  A  G  F#  E

E  Db  D  Db  A  Db  D  E

E  Db  A  E

1st Verse

G     F#  E         Db      D      Db  A
Well the first time that I saw her

D    E           Db      D     Db  A  G  F#  E
she was standin' on the floor

       E             Db        D      Db  D
and it hit me like a bolt of lighting baby

           E     Db          D    Db  A  G  F#  E
when she walked through the door

1st Pre Chorus

         A         D
and the time was right


     A                   D        E   D    E  Db  D  Db  A  Db  D  E
the stars were shinin' bright and I kept fallin'

E  Db  D  Db  A  G  F#  E

1st Chorus

           B                  Bm7  B  Db
oh Yes it may sound funny to you

    A       Db  D   E  Db  D  Db  A  Db  D  E
oh she's my baby blue


E  Db  A  G  F#  E


2nd Verse

E               Db     D   Db  A  Db  D
Well it was a jumpin night

E             Db            D   Db  A  G  F#  E
and everybody playin their game

               Db      D    Db  A  Db  D
when I saw her in the light I know I'd

E     Db      D   Db  A  G  F#  E
never be the same

2nd Pre Chorus

         A           D
yes the stars were bright

    A             D
a jumpin' friday night

D   E   D    E  Db  D  Db  A  Db  D  E
and I kept fallin' yeah

E  Db  D  Db  A  G  F#  E

2nd Chorus

    B                          Bm7  B
yes Well it may sound funny to you

Db  A       Db  D  E
oh she's my baby blue

Db  D  Db  A  Db  D  E

E  Db  A

Solo

B  Bm7  B   Bm7  B

Bm7  B  Bm7  B

B  Bm7  B   Bm7  B

Bm7  B  Bm7  B

D  A  Dbm7  A  Dbm7  A

B  Bm7  B   Bm7  B

Bm7  B  Bm7  B

B  Bm7  B   Bm7  B

Bm7  B  Bm7  B

D  A  Db  D

E  Db  D  Db  A  Db  D  E

E  Db  D  Db  A  E  G  F#

3rd Verse

      E         Db      D       Db  A  Db  D
Well there's no lies between us

E   Db       D   Db  A  G  F#  E
no games we play

       E     Db    D    Db A   Db  D
so why wait till tomorrow baby

     E      Db     D   Db  A  G  F#  E
when we can live today


3rd Pre Chorus

     A            D
and now I'm the light

      A                     D    E  D   E
the light that's shinin' bright in her eyes oh yes

Db  D  Db  A  Db  D  E

E  Db  D  Db  A  G  F#  E

3rd CHorus

         B                  Bm7  B  Db
Well it may sound funny to you

    A       Db D  E
oh she's my baby blue

Db  D  Db  A  Db  D  E

E  Db  D  Db  A  G  F#  E

                 B                   Bm7  B  Db
oh now listen it may sound funny to you

    A       Db  D   E  Db  D  Db  A  Db  D  E
oh she's my baby blue oh oh oh oh

E  Db  E
Добавлено: 02.06.2013
Другие материалы по этой песне:

Страница создана 04.07.2012
http://primanota.ru/blackfoot/baby-blue-chords.htm
Привет, Гость.
Предлагаем пройти революционный курс по гитаре.
Подарок от PrimaNota.Ru, забирай!