PrimaNota.ru - самый крупный в мире бесплатный архив песенных текстов, аккордов, табулатур и нот


Blackfield - Oxygen - аккорды и текст, таба, видео

Регистрация Запомнить меня
Войти через:  Facebook Google Twitter Vk Yandex Mail.ru

Blackfield - Oxygen - аккорды и текст, таба, видео

Печатать
Просмотров: 254
Oxygen
Blackfield
Picking Pattern
e|-----------------|-----------------|-----------------|-----------------|
B|-----0-----0---0-|-----0-------0---|-----0-----0---0-|-----0-----0---0-|
G|---8-----8-------|---8-------4---4/|---6-----6-------|---6-----6-------|
D|-6-----6-----6---|-6-----6\2-------|-4-----4-----4---|-4-----4-----4---|
A|-----------------|-----------------|-----------------|-----------------|
E|-----------------|-----------------|-----------------|-----------------|
   G#m                       E         F#sus

e|-----------------|-------------------|-------------------|-----------------|
B|-----0-----0---0-|------0------0---0-|------0------0---0-|-----0-----0---0-|
G|---8-----8-------|---11-----11-------|---11-----11-------|---9-----9-------|
D|-6-----6-----6--/|-9------9------9---|-8------8------8---|-6-----6-----6---|
A|-----------------|-------------------|-------------------|-----------------|
E|-----------------|-------------------|-------------------|-----------------|
   G#m               B                   F#/A#               E/G#

ORDER: V1 C V2 C FC O


[VERSE 1]
G#m         E
    So far a-way
F#sus4
    We lost the way
G#m            B         F#/A#          E/G#
    There's no oxygen left    on our pla - net
G#m      E
    Empty words
F#sus4
    Break on our lips
G#m            B         F#/A#          E/G#
    There's no oxygen left    on our pla - net


[CHORUS]
              G7M   C#m7b5/E    Em7
      Everyone,     sleep - ing with their guns
G7M   C#m7b5/E                 Bm/F# F#m/A G7M  
      Some  -  one's going to die
A
      So much noise
G7M   C#m7b5/E   Em7
      We're    a bunch of boys
G7M   C#m7b5/E               Bm/F# F#m/A G7M   A
      We       were born to lie


[VERSE 2]
G#m         E
    I feel a-live
F#sus4
    Just when I cry
G#m            B         F#/A#          E/G#
    There's no oxygen left    on our pla - net
G#m          E
    Things we've said
F#sus4
    And then we crashed
G#m            B          F#/A#          E/G#
    There's no oxygen left     on our pla - net


[CHORUS]
              G7M   C#m7b5/E    Em7
      Everyone,     sleep - ing with their guns
G7M   C#m7b5/E                 Bm/F# F#m/A G7M  
      Some  -  one's going to die
A
      So much noise
G7M   C#m7b5/E   Em7
      We're    a bunch of boys
G7M   C#m7b5/E               Bm/F# F#m/A G7M   A
      We       were born to lie


[FINAL CHORUS]
              G7M   C#m7b5/E G7M   C#m7b5/E
      Everyone
              Bm/F# F#m/A    G7M   A

              G7M   C#m7b5/E    Em7
      Everyone,     sleep - ing with their guns
G7M   C#m7b5/E                 Bm/F# F#m/A G7M   A
      Some  -  one's going to die


[OUTRO]
G#m         E
    So far a-way
F#sus4
    We lost the way
G#m            B         F#/A#          E/G#   G#m
    There's no oxygen left    on our pla - net
Добавлено: 29.11.2015
Другие материалы по этой песне:
  • Аккорды и текст

Страница создана 14.04.2012
http://primanota.ru/blackfield/oxygen-chords.htm
Привет, Гость.
Предлагаем пройти революционный курс по гитаре.
Подарок от PrimaNota.Ru, забирай!