PrimaNota.ru - самый крупный в мире бесплатный архив песенных текстов, аккордов, табулатур и нот


Blackfield - From 44 To 48 - аккорды и текст, видео

Регистрация Запомнить меня
Войти через:  Facebook Google Twitter Vk Yandex Mail.ru

Blackfield - From 44 To 48 - аккорды и текст, видео

Печатать
Просмотров: 66
Новый альбом группы 'Черный Кузнец' по культовому сериалу 'Сверхъестественное'!
From 44 To 48
Blackfield
--------------------------------------------------------------------------
                                          Artist - Blackfield
                                         *********************
                                         Song - From 44 To 48  
                                        **********************
                                           Album - V (2017) 
                                          ******************
                                         Tabbed By - Ayreon77
                                        **********************
--------------------------------------------------------------------------
Tuning = Standard


INTRO
******
A

--------------------
VERSE 1
********
A                   C#m
Then between 13 and 17
                       F#m               C#m
I'd dreamed of all the things I'd be and how
    D                                                    A
I'd see you all from high on a mountain and know I could take it.


--------------------
VERSE 2
********
A                   C#m
Then between 19 and 21
                    F#m            C#m
I knew one day that I'd become someone
        D                                           A
And I'd stand up in front of a crowd and feel them adore me.


--------------------
01:06
BREAK         Big Thanks goes to NSpen1 for figuring this part out for me. 
******                      This is 2 guitars made for one.
e|------------------|--------------------|-------------------|-----------------|
B|-----9----7----12-|-10----7----7--7----|-------------------|-----------------|
G|-----9----9----12-|-12----7----7--7----|-----(6)-(6)---(6)-|--s--------------|
D|-7---9----9----12-|-12----7----7--7--5-|-7----7---7-----7--|-9/11--11--11--9-|
A|-0----------------|------------------0-|-0----0---0-----0--|-0------0---0--0-|
E|------------------|--------------------|-------------------|-----------------|


e|------------------|--------------------|-------------------|-------------------|
B|-----9----7----12-|-10----7----7--7----|-------------------|-------------------|
G|-----9----9----12-|-12----7----7--7----|-----(6)-(6)---(6)-|-(6)---------------|
D|-7---9----9----12-|-12----7----7--7--5-|-7----7---7-----7--|--7-----9---11--9--|
A|-0----------------|------------------0-|-0----0---0-----0--|--0----(0)-(0)-(0)-|
E|------------------|--------------------|-------------------|-------------------|


--------------------
VERSE 3
********
A               C#m
Then from 24 to 25
                 F#m            C#m
A girl I liked became my wife I tried,
       D                                            A
it was harder than I'd ever imagined to keep all my dreams alive.


--------------------
VERSE 4
********
A               C#m
Then from 28 to 33
              F#m       C#m
A new responsibility, a child.
      D                                              A
And I worked hard to give her a home, to love and to shelter her.


--------------------
02:22
BREAK
******
e|------------------|--------------------|-------------------|-----------------|
B|-----9----7----12-|-10----7----7--7----|-------------------|-----------------|
G|-----9----9----12-|-12----7----7--7----|-----(6)-(6)---(6)-|--s--------------|
D|-7---9----9----12-|-12----7----7--7--5-|-7----7---7-----7--|-9/11--11--11--9-|
A|-0----------------|------------------0-|-0----0---0-----0--|-0------0---0--0-|
E|------------------|--------------------|-------------------|-----------------|


e|------------------|--------------------|-------------------|-------------------|
B|-----9----7----12-|-10----7----7--7----|-------------------|-------------------|
G|-----9----9----12-|-12----7----7--7----|-----(6)-(6)---(6)-|-(6)---------------|
D|-7---9----9----12-|-12----7----7--7--5-|-7----7---7-----7--|--7-----9---11--9--|
A|-0----------------|------------------0-|-0----0---0-----0--|--0----(0)-(0)-(0)-|
E|------------------|--------------------|-------------------|-------------------|


--------------------
02:40
EBOW SOLO - A C#m F#m C#m D A
**********
e|-------------------------------------------------------------------------------|
B|-------------------------------------------------------------------------------|
G|-------------------------------------------------------------------------------|
D|------------------s--------b---b---b--s-----s-----s-----------b---------r------|
A|-12~~~~~~~~~~~~~~~\11~~~~~~~~~~~~~~~~~\7~~~~\9~~~~\4~~~~~~~~~~~~~~~~~~~~~~~~~~~|
E|-------------------------------------------------------------------------------|


e|-------------------------------------------------------------------------------|
B|-------------------------------------------------------------------------------|
G|-------------------------------------------------------------------------------|
D|---s--------------------------------------------------s---------------------b--|
A|~~~\7~~~~~~~~~~~~~~~~~~~~~~~~~~~~~~~~~~~~~~~~~~~~~~~~~\11~~~~~~~~~~~~~~~~~~~~~~|
E|-------------------------------------------------------------------------------|


--------------------
VERSE 5
********
A               C#m
Then from 44 to 48
                   F#m              C#m
I knew I'd left it far too late for sure.
   D                                                  A
To climb up the mountain 'cause time's always running away from me.


--------------------
03:27
BREAK
******
e|------------------|--------------------|-------------------|-----------------|
B|-----9----7----12-|-10----7----7--7----|-------------------|-----------------|
G|-----9----9----12-|-12----7----7--7----|-----(6)-(6)---(6)-|--s--------------|
D|-7---9----9----12-|-12----7----7--7--5-|-7----7---7-----7--|-9/11--11--11--9-|
A|-0----------------|------------------0-|-0----0---0-----0--|-0------0---0--0-|
E|------------------|--------------------|-------------------|-----------------|


e|------------------|--------------------|-------------------|-------------------|
B|-----9----7----12-|-10----7----7--7----|-------------------|-------------------|
G|-----9----9----12-|-12----7----7--7----|-----(6)-(6)---(6)-|-(6)---------------|
D|-7---9----9----12-|-12----7----7--7--5-|-7----7---7-----7--|--7-----9---11--9--|
A|-0----------------|------------------0-|-0----0---0-----0--|--0----(0)-(0)-(0)-|
E|------------------|--------------------|-------------------|-------------------|



ENJOY..........
Добавлено: 17.12.2017
Другие материалы по этой песне:
  • Аккорды и текст

Страница создана 17.12.2017
http://primanota.ru/blackfield/from-44-to-48-chords.htm
Привет, Гость.
Предлагаем пройти революционный курс по гитаре.
Подарок от PrimaNota.Ru, забирай!