PrimaNota.ru - самый крупный в мире бесплатный архив песенных текстов, аккордов, табулатур и нот


Blackfield - Dna - таба, видео

Регистрация Запомнить меня
Войти через:  Facebook Google Twitter Vk Yandex Mail.ru

Blackfield - Dna - таба, видео

Печатать
Просмотров: 163
Уроки эстрадного вокала в Санкт-Петербурге
                                          Artist - Blackfield
                                         *********************
                                              Song - DNA
                                             ************
                                       Album - Welcome To My DNA
                                      ***************************
                                          Tabbed By - Ayreon77
                                         **********************


Guitar 1 = No Capo
Guitar 2 = Capo 3rd fret

VERSES
*******
 Guitar 1
    Fm      Cm      Bbm     Fm       Cm      Bbm
[----8---|--11---|---9---|---8----|--11---|---9---]\
[----9---|--8----|---6---|---9----|--8----|---6---] \  
[----10--|--8----|---6---|---10---|--8----|---8---]  \    
[----10--|--10---|---8---|---10---|--10---|---8---]   \  
[----8---|--10---|---8---|---8----|--10---|---8---]    \   
[----8---|--8----|---6---|---8----|--8----|---6---]     \   
|                                                 |      \   
|Guitar 2 - Capo 3 FRET                    Words  |      X2  
|                                             DNA |      /      
[----1---|-0-----|-------|----1---|-0-----|-------]     /   
[---3-3--|---1---|---3---|---3-3--|---1---|---3---]    /    
[--2---2-|-----0-|-----3-|--2---2-|-----0-|-----3-]   /     
[-0------|-------|-0-----|-0------|-------|-0-----]  /      
[--------|-------|-------|--------|-------|-------] /       
[--------|-------|-------|--------|-------|-------]/        
                     
 Guitar 1
      Ab            Eb
[-----8-------|-------------]
[-----9-------|------8------]
[-----8-------|------8------]
[-----10------|------8------]
[-------------|------6------]
[-------------|-------------]
|                           |
|Guitar 2                   |
|                           |
[-0-----0-----|-0-----0-----]
[---1-----1---|---1-----1---]
[-----2-----2-|-----0-----0-]
[-------------|-------------]
[-------------|-------------]
[-------------|-------------]

--------------------------------------------
CHORUS
*******
 Guitar 1 - these barre chord don,t actually get strummed in the chorus
            i think its a keyboard.                     
     Bbm            Cm            Fm            Gm            Bbm
[-----6-------|-----8-------|-----8-------|-----10-------|-----9------]
[-----6-------|-----8-------|-----9-------|-----11-------|-----6------]
[-----6-------|-----8-------|-----10------|-----12-------|-----8------]
[-----8-------|-----10------|-----10------|-----12-------|-----8------]
[-----8-------|-----10------|-----8-------|-----10-------|-----8------]
[-----6-------|-----8-------|-----8-------|-----10-------|-----6------]
|                                                                     |
|Guitar 2                                                             |
|                                                                     |
[-------------|-------------|-------------|-------------|-3-----3-----]
[-3-----3-----|-3-----3-----|-3-----3-----|-3-----3-----|---3-----3---]
[---0-----0---|---0-----0---|---1-----1---|---0-----0---|-----3-----3-]
[-----0-----0-|-----2-----2-|-----0-----0-|-----2-----2-|-------------]
[-------------|-------------|-------------|-------------|-------------]
[-------------|-------------|-------------|-------------|-------------]

 Guitar 1
     Fm        Cm          Fm
[----8---------8-----------8----------]
[----9---------8-----------9----------]
[----10--------8-----------10---------]
[----10--------10----------10---------]
[----8---------10----------8----------]
[----8---------8-----------8----------]
|                           |
|Guitar 2                   |Go now and never come back
|                           |
[-0-----0-----0-----0-----0-]
[---3-----3-----3-----3-----]
[-----2-----2-----2-----2---]
[---------------------------]
[---------------------------]
[---------------------------]

--------------------------------------------
MINI SOLO
**********
 Guitar 1        
       Fm        Eb         C#             Cm
[------8------|---------------------------8-----------]\
[------9------|--8----------6-------------8-----------] \
[------10-----|--8----------6-------------8-----------]  \
[------10-----|--8----------6-------------10----------]   \ 
[------8------|--6----------4-------------10----------]    \
[------8------|---------------------------8-----------]     \ 
|                                                     |      \
|Guitar 2                                             |       \
[-------1-----|-------0-----------------|-------------]        \
[-----3---3---|-----3---3---------3-----|-------3-----]         \
[---2-------2-|---2-------2-----2---2---|-----0---0---]          \
[-0-----------|---------------0-------0-|---2-------2-]          X2
[-------------|-3-----------1-----------|-0-----------]          /
[-------------|-------------------------|-------------]         / 
|                                                     |        /
|                                                     |       /
| Guitar 3                                            |      /
[-------6--8---------6--8-----------------------------]     /
[-------------6--8--------8--6------------------------]    /
[-----------------------------------------------------]   /
[-----------------------------------------------------]  /
[-----------------------------------------------------] / 
[-----------------------------------------------------]/

--------------------------------------------
Continue with guitars above For verses & Chorus

VERSE 1
********
Fm   Cm         Bbm     Fm
DNA, welcome to my  DNA 
Cm       Bbm          Ab
Stupidly you wants to stay
        Eb
With my DNA
Fm   Cm         Bbm          Fm
DNA, you cannot fix what you get
Cm            Bbm    Ab
Things that I try to forget
      Eb
In my DNA

--------------------------------------------
CHORUS
*******
Bbm        Cm
Can you forgive me
    Fm               Gm
For things that I've said
Bbm              Fm    Cm
Things that I've done
                      Fm
Go now and never come back

--------------------------------------------
MINI SOLO X2 - filled with orchestra
*************
--------------------------------------------

VERSE 2                 
********                         Louder or another guitar
Fm   Cm         Bbm      Fm       Ab     Eb
DNA, we all got expiring dates  [-0-----|-0-----]   
Cm               Bbm    Ab----- [---1---|---1---]
Trust me there's no get away    [-----2-|-----0-]      
        Eb                      [-------|-------] 
From my DNA                     [-------|-------]  
Fm   Cm       Bbm         Fm    [-------|-------]
DNA, Wires of sadness and pain      |
Cm                   Bbm      Ab----|
Always remaining the same, my DNA

--------------------------------------------
CHORUS
*******
Bbm             Cm
Disarmed by the music
        Fm          Gm
there's bombs in my head
Bbm               Fm     Cm
You'll always get burned
                     Fm
Go now and never get back

--------------------------------------------
MINI SOLO X2
*************
--------------------------------------------

CHORUS
*******
Bbm       Cm
My deadly venom
Gm           Gm
Soon I'll be dead
Bbm       Fm    Cm
Go now my love
                      Fm
Go now and never come back

--------------------------------------------
MINI SOLO X6
*************
--------------------------------------------


Any mistakes let me know at the bottom.
don't just give me a low rating because of an error that i can fix.
        
This is a cool track. Enjoy..........
Добавлено: 30.09.2013
Другие материалы по этой песне:
  • Аккорды и текст

Страница создана 30.09.2013
http://primanota.ru/blackfield/dna-chords.htm
Привет, Гость.
Предлагаем пройти революционный курс по гитаре.
Подарок от PrimaNota.Ru, забирай!