PrimaNota.ru - самый крупный в мире бесплатный архив песенных текстов, аккордов, табулатур и нот


Blackfield - Dissolving With The Night - таба, видео

Регистрация Запомнить меня
Войти через:  Facebook Google Twitter Vk Yandex Mail.ru

Blackfield - Dissolving With The Night - таба, видео

Печатать
Просмотров: 122
Уроки эстрадного вокала в Санкт-Петербурге
Welcome,

this is a guitar version to the new blackfield song "dissolving with the night".
Although the album version is played on a piano, I tried to transcribe it to one guitar. There
are many ways to play these chords actually, but I ended up with a version that won't 
kill your fingers at all.

Hope you enjoy it!

*****CAPO 2nd Fret*****

Tuning: Standard


Intro and Verse 1

e|-2--2--2--2--2--2--2--2--|--2--2--2--2--2--2--2--2--|
B|-0--0--0--0--0--0--0--0--|--0--0--0--0--0--0--0--0--|
G|-3--3--3--3--3--3--3--3--|--4--4--4--4--4--4--4--4--|
D|-4--4--4--4--4--4--4--4--|--0--0--0--0--0--0--0--0--|
A|(6)(6)(6)(6)(6)(6)(6)(6)-|--------------------------|
E|-------------------------|--------------------------|

Note: the ( )-notes sound pretty good, but aren't necessary to play.

e|-2--2--2--2--2--2--2--2--|--2--2--2--2--2--2--2--2--|
B|-0--0--0--0--0--0--0--0--|--0--0--0--0--0--0--0--0--|
G|-4--4--4--4--4--4--4--4--|--4--4--4--4--0--0--x--x--|
D|-5--5--5--5--5--5--5--5--|--5--5--5--5--0--0--2--2--|
A|(5)(5)(5)(5)(5)(5)(5)(5)-|--------------------------|
E|-------------------------|--------------------------|


Chorus

e|-3--3--3--3--3--3--3--3--|--2--2--2--2--2--2--2--2--|
B|-0--0--0--0--0--0--0--0--|--3--3--3--3--3--3--3--3--|
G|-0--0--0--0--0--0--0--0--|--2--2--2--2--2--2--2--2--|
D|-0--0--0--0--0--0--0--0--|--0--0--0--0--0--0--0--0--|
A|-------------------------|--------------------------|
E|-3--3--3--3--3--3--3--3--|--------------------------|


e|-2--2--2--2--2--2--2--2--|--0--0--0--0--0--0--0--0--|
B|-3--3--3--3--3--3--3--3--|--2--2--2--2--2--2--2--2--|
G|-4--4--4--4--4--4--4--4--|--2--2--2--2--2--2--2--2--|
D|-4--4--4--4--4--4--4--4--|--4--4--4--4--4--4--4--4--|
A|-2--2--2--2--2--2--2--2--|--4--4--4--4--4--4--4--4--|
E|-------------------------|--------------------------|


Little Piano Solo:

e|-5-------5-------5-------5--------|--6--------6--------6--------6--------|
B|---0-7-8---0-7-8---0-7-8---0-7-0--|----6-8-10---6-8-10---6-8-10---6-8-6--|
G|----------------------------------|--------------------------------------|
D|----------------------------------|--------------------------------------|
A|----------------------------------|--------------------------------------|
E|----------------------------------|--------------------------------------|


e|-5-------5-------5-------5--------|-6--------6--------6---------6~~~~~---|
B|-----6-8-----6-8-----6-8-----6----|---6-8-10---6-8-10---6-8-10-----------|
G|---5-------5-------5-------5---5--|--------------------------------------|
D|----------------------------------|--------------------------------------|
A|----------------------------------|--------------------------------------|
E|----------------------------------|--------------------------------------|


2nd Verse

You can play a little variation here with some bass-notes. But in my opinion this is way
to difficult to play - so I didn't tab that.


2nd Chorus

Solo again a few times

half of the 1st Verse




I hope you enjoy this tab and the song. Please rate!

--the-splash--
Добавлено: 14.06.2012
Другие материалы по этой песне:
  • Аккорды и текст

Страница создана 14.06.2012
http://primanota.ru/blackfield/dissolving-with-the-night-chords.htm
Привет, Гость.
Предлагаем пройти революционный курс по гитаре.
Подарок от PrimaNota.Ru, забирай!