PrimaNota.ru - самый крупный в мире бесплатный архив песенных текстов, аккордов, табулатур и нот


Blackbird Blackbird - Its A War - таба, видео

Регистрация Запомнить меня
Войти через:  Facebook Google Twitter Vk Yandex Mail.ru

Blackbird Blackbird - Its A War - таба, видео

Печатать
Просмотров: 33
-------------------------------------------------------------------------------
                             IT'S A WAR - Blackbird Blackbird
-------------------------------------------------------------------------------
Tabbed by: Sogy11

Tuning: Standard

00:14
e|--0~-2----2--5-2----2---------|
B|-------2-3-3-----2-3-3--------|
G|------------------------------|
D|------------------------------|
A|------------------------------|
E|------------------------------|

e|---10--------------------------------|
B|-12--12-10--10---------10------------|
G|----------11--11/9-9-11--11-9--------| x2
D|-------------------------------------|
A|-------------------------------------|
E|-------------------------------------|

e|---------------------------------------------------------------------------|
B|--12/15-15-12---10-------10-12-10-12-15-12-10------------------------------|
G|--------------11--11-9-7---------------------11----------------------------|
D|---------------------------------------------------------------------------|
A|---------------------------------------------------------------------------|
E|---------------------------------------------------------------------------|

00:40
e|--0~-2----2--5-2----2----5-2----2----5-2----2------------------------------|
B|-------2-3-3-----2-3-3-------2-3-3-------2-3-3-----------------------------|
G|---------------------------------------------------------------------------|
D|---------------------------------------------------------------------------|
A|---------------------------------------------------------------------------|
E|---------------------------------------------------------------------------|

00:56
e|-------------------------------------|
B|----8---------10---------7-----------|
G|-----7----------9---------6--76------|
D|--9---9----11----11----7-------------|
A|-------------------------------------|
E|-------------------------------------|

01:04
e|---------------------------------------------------------------------------|
B|---------------------------------------------------------------------------|
G|------4764-----------4764-------------4764------------764------------------| 
D|---444----74444---444----7444/2---444-----7444/2---444---74444-------------|
A|---------------------------------------------------------------------------|
E|---------------------------------------------------------------------------|

01:21
e|---------------------------------------------------------------------------|
B|---------------------------------------------------------------------------|
G|----------------------------------4764-------------4764--------------------| 
D|---447-44744-4444-4444--(x2)---444----7444424---444----7444/2--------------|
A|---------------------------------------------------------------------------|
E|---------------------------------------------------------------------------|

01:37
e|-------7-10-9-7------------7-10-9-7---------7-7-10-7-10----|
B|-7-7-7---------10-7777--777---------10-777-----------------|
G|-----------------------------------------------------------|x2
D|-----------------------------------------------------------|
A|-----------------------------------------------------------|
E|-----------------------------------------------------------|

01:53
         D         A         Em    G
e|-------2-2-2-2-----------------|-3-2-0----0-0-2-5---0-0-0-2-0---0-2-0-------|
B|-------3-3-3-3---2-2-2-2-------|------333---------3----------3-3-----323--00|
G|-------2-2-2-2---2-2-2-2-------|--------------------------------------------|
D|-----------------2-2-2-2---2---|--------------------------------------------|
A|---------------------------2---|--------------------------------------------|
E|-------------------------------|--------------------------------------------|

02:09
e|-----------------------------------------|
B|-0/777775788-10-10-10----10-8-7-7777-55--|
G|-----------------------------------------|x2
D|-----------------------------------------|
A|-----------------------------------------|
E|-----------------------------------------|

02:25
e|------------------------------|
B|---77777-5-3-2222----7775333--|
G|------------------------------|
D|------------------------------|
A|------------------------------|
E|------------------------------|


************************************

| /   slide up
| \   slide down
| h   hammer-on
| p   pull-off
| ~   vibrato
| +   harmonic
| x   Mute note
| b   Bend
| pb  Pre-bend
| br  Bend release
| pbr Pre-bend release
| brb Bend release bend

************************************
Добавлено: 27.06.2016
Вам также может быть интересно:
Другие материалы по этой песне:
  • Аккорды и текст

Страница создана 27.06.2016
http://primanota.ru/blackbird-blackbird/its-a-war-chords.htm
Привет, Гость.
Предлагаем пройти революционный курс по гитаре.
Подарок от PrimaNota.Ru, забирай!