PrimaNota.ru - самый крупный в мире бесплатный архив песенных текстов, аккордов, табулатур и нот


Blackbird Blackbird - Happy With You - таба, видео

Регистрация Запомнить меня
Войти через:  Facebook Google Twitter Vk Yandex Mail.ru

Blackbird Blackbird - Happy With You - таба, видео

Печатать
Просмотров: 135
This tab covers the acoustic guitar that plays throughout the song. The
same sequence of notes using 3 Chords is played and looped throughout the whole song.
Unfortunately I have yet to
tab the solo.


E| ------------------------------------|
B| ------------------------------------|
G| ------------2-----------------2-----|
D| --------0-------0---------0-------0-|
A| ------3---3---3---3-----3---3---3---|
E| ---1-----------------1--------------|

E|-------------------------|
B|------------3------------|
G|--------0----------------|
D|------3---3---3-0-3------|   (X1)
A|---1---------------------|
E|-------------------------|


E|--------------------------|
B|--------------------------|
G|--------------------------|
D|------3-0-3---3-0-3-------|  (X1)
A|---1---------0------------|
E|--------------------------|
Добавлено: 07.08.2015
Вам также может быть интересно:
Другие материалы по этой песне:
  • Аккорды и текст

Страница создана 07.08.2015
http://primanota.ru/blackbird-blackbird/happy-with-you-chords.htm
Привет, Гость.
Предлагаем пройти революционный курс по гитаре.
Подарок от PrimaNota.Ru, забирай!