PrimaNota.ru - самый крупный в мире бесплатный архив песенных текстов, аккордов, табулатур и нот


Blackberry Smoke - Up In Smoke - таба, видео

Регистрация Запомнить меня
Войти через:  Facebook Google Twitter Vk Yandex Mail.ru

Blackberry Smoke - Up In Smoke - таба, видео

Печатать
Просмотров: 282
Up In Smoke
Blackberry Smoke

*sweet_inc*

two guitars is this one...
Guitar 1 - standard tuning with drop d, capo on second fret (notes shown in relation to capo)
guitar 2 - standard tuning (tabs further down)

Guitar 1
comes is on
e|-------------|
B|-------------|
G|-------------|
D|-------------|
A|--3-5--------|
D|--3-5--------|

main riff
e|--------------------------------------------|
B|--------------------------------------------|
G|--------------------------------------------|
D|--------------3h4-3h4-------3h4/5-4-5-4-3---|
A|--3h5-5-3h5-5---------3h5-5-----------------|
D|--------------------------------------------|

verse
e|--------------------------------------|
B|--------------------------------------|
G|--------------------------------------|
D|--------------------------------------|
A|---3h5-5-3h5-5-3h5--3h5-5-3h5--3-5----|
D|-------------------------------3-5----|

pre-chorus
e|-------------------------------------3-3-1-1---|
B|-------------------------------------3-3-1-1---|
G|----0----0----0----2----0----0----2--0-0-2-2---|
D|----4----2----0----2----4----2----2--0-0-3-3---|
A|--5----3----2----0----5----3----0----2-2-3-3---|
D|-------------------------------------3-3-------|

chorus pt1
e|---2-2--3-3--3-3------------|
B|---3-3--3-3--3-3------------|
G|---2-2--0-0--0-0------------|
D|---0-0-------0-0----0-3-0---|
A|--------3-3--2-2--3---------|
D|----------------------------|

chorus pt2
e|--------3----|
B|--------3----|
G|-3-3-3--0----|
D|-3-3-3--2----|
A|-1-1-1--3----|
D|-------------|

bridge/solo is basically this
e|--------------------------------------------|
B|--------------------------------------------|
G|--------------------------------------------|
D|--------------3h4-3h4-------3h4/5-4-5-4-3---|
A|--3h5-5-3h5-5---------3h5-5-3h4/5-4-5-4-3---|
D|----------------------------3h4/5-4-5-4-3---|


Guitar 2
comes is on
e|-------------|
B|-------------|
G|-------------|
D|-------------|
A|--5-7--------|
E|--3-5--------|

main riff
e|--------------------------------------------|
B|--------------------------------------------|
G|--------------------------------------------|
D|--------------3h4-3h4-------3h4/5-4-5-4-3---|
A|--3h5-5-3h5-5---------3h5-5-----------------|
E|--------------------------------------------|

verse
e|--------------------------------------|
B|--------------------------------------|
G|--------------------------------------|
D|--------------------------------------|
A|---3h5-5-3h5-5-3h5--3h5-5-3h5--5-7----|
E|-------------------------------3-5----|

pre-chorus
e|----------------------------------------------3-3---|
B|----------------------------------------------3-3---|
G|----9----7----6----4----9----7----6----4--2-2-0-0---|
D|----9----7----6----4----9----7----6----4--2-2-0-0---|
A|--7----5----4----2----7----5----4----2----0-0-------|
E|----------------------------------------------3-3---|

chorus pt 1
e|---------------------------|
B|---------------------------|
G|--9-9--7-7--6-6------------|
D|--9-9--7-7--6-6------5-----|
A|--7-7--5-5--4-4--5-7---7---|
E|---------------------------|

chorus pt 2
e|------------|
B|------------|
G|--5-5-5-7---|
D|--5-5-5-7---|
A|--3-3-3-5---|
E|------------|
Добавлено: 24.10.2013
Другие материалы по этой песне:
  • Аккорды и текст

Страница создана 24.10.2013
http://primanota.ru/blackberry-smoke/up-in-smoke-chords.htm
Привет, Гость.
Предлагаем пройти революционный курс по гитаре.
Подарок от PrimaNota.Ru, забирай!