PrimaNota.ru - самый крупный в мире бесплатный архив песенных текстов, аккордов, табулатур и нот


Black Veil Brides - We Stitch These Wounds - текст песни, таба, видео

Регистрация Запомнить меня
Войти через:  Facebook Google Twitter Vk Yandex Mail.ru

Black Veil Brides - We Stitch These Wounds - текст песни, таба, видео

Печатать
Просмотров: 656
Black Veil Brides
		    "We Stitch These Wounds"

/ =Slide down              \ =Slide up
h =Hammer on           ~ =Vibrato
* =Palm Mute
p =Pull off

			Intro
e|----------------------------------------|
B|----------------------------------------|
G|--2-22-2-----------///-2-22-2-----------|
D|--2-22-2---5-4-0---///-2-22-2---5-7-4---|	
A|--2-22-2-----------///-2-22-2-----------|
D|--2-22-2-----------///-2-22-2-----------|
      **                   **


e|-------------------------------------------------------|
B|-------------------------------------------------------|
G|--2-22-2------------------///-2-22-2-------------------|
D|--2-22-2---5-4-0-4-5~~~~~-///-2-22-2---5-7-4~~~~~------|	
A|--2-22-2------------------///-2-22-2-------------------|
D|--2-22-2------------------///-2-22-2-------------------|
      **                          **


			

			Main Riff
e|---------------------------------------|
B|---------------------------------------|
G|---------------------------------------|
D|-----5-4---5-7----5-4-0----------------|	
A|---------------------------------------|
D|--00-----0-----0-----------------------|
    **     *     *
                                                   x4

e|---------------------------------------|
B|---------------------------------------|
G|---------------------------------------|
D|-----5-4---5-7---4h5p4h5p4h5p4h5p4-----|	
A|---------------------------------------|
D|--00-----0-----0-----------------------|
    **     *     *


			Chorus
e|-----------------------------------------------------|
B|-----------------------------------------------------|
G|-00--00---2-22-2--2-5-55-5------------0-00-0//0-00-0-|
D|-00--00---2-22-2--2-5-55-5--999-7-7~~-0-00-0//0-00-0-|x2	
A|-00--00---2-22-2--2-5-55-5------------0-00-0//0-00-0-|
D|-00--00---2-22-2--2-5-55-5------------0-00-0//0-00-0-|
   **  *      **        **                **      **

		(Repeat Main Riff)

		(Repeat Chorus)


			Solo
e|------------------------------------------|
B|------------------------------------------|
G|-2-2--6h7p6-\4-/6~~-7-9-7-9-7-6h7p6~~-----|
D|-2-2--------------------------------------|  x2	
A|-2-2--------------------------------------|
D|-2-2--------------------------------------|


e|---------------------------------------------|
B|------7h8p7-\5-/7~~--8h10p8--10-8-7h8p7~~----|
G|-2-2-----------------------------------------|x2
D|-2-2-----------------------------------------|	
A|-2-2-----------------------------------------|
D|-2-2-----------------------------------------|


	        Breakdown
e|---------------------------------------------|
B|---------------------------------------------|
G|-2-2222-2-4-4444-4-5-5555-5---7-5-4-5-4------|x3
D|-2-2222-2-4-4444-4-5-5555-5---7-5-4-5-4------|	
A|-2-2222-2-4-4444-4-5-5555-5---7-5-4-5-4------|
D|-2-2222-2-4-4444-4-5-5555-5---7-5-4-5-4------|
     ****     ****     ****   

		(Repeat Chorus)

		Outro

e|--------------------------|
B|--------------------------|
G|-22-22-22-22--00-00-00-00-|
D|-22-22-22-22--00-00-00-00-|x5	
A|-22-22-22-22--00-00-00-00-|
D|-22-22-22-22--00-00-00-00-|
   ** ** ** **  ** ** ** **


e|----------|
B|----------|
G|-22-22----|
D|-22-22----|	
A|-22-22----|
D|-22-22----|
   **
Добавлено: 12.04.2012
Другие материалы по этой песне:

Страница создана 27.03.2012
http://primanota.ru/black-veil-brides/we-stitch-these-wounds-chords.htm
Привет, Гость.
Предлагаем пройти революционный курс по гитаре.
Подарок от PrimaNota.Ru, забирай!