PrimaNota.ru - самый крупный в мире бесплатный архив песенных текстов, аккордов, табулатур и нот


Black Veil Brides - Victory Call - таба, бас-таба, видео

Регистрация Запомнить меня
Войти через:  Facebook Google Twitter Vk Yandex Mail.ru

Black Veil Brides - Victory Call - таба, бас-таба, видео

Печатать
Просмотров: 350
----------------------------------------------------------------------------
                             Victory Call
                           Black Veil Brides
----------------------------------------------------------------------------

No personal story. Enjoy!

Username: dkm817 (same on X box live)
Youtube Cover: https://www.youtube.com/watch?v=NeSbx6KfUuY
Email: guitardrums@rockfan.com

Guitar 1 Rhythmic (B  F# B  E  G# C#)
Guitar 2 Lead     (B  F# B  E  G# C#)
Guitar 3 Lead     (B  F# B  E  G# C#)


NOTE: This was exported off of guitar pro.


Guitar 1

      H        Q        H        Q       H        Q       E  E  E  E  E  E   
C#||----------------|-----------------|----------------|--------------------|
G#||----------------|-----------------|----------------|--------------------|
E ||----------------|-----------------|----------------|--------------------|
B ||--0--------L----|---L--------L----|--L--------L----|--------------------|
F#||--0--------L----|---L--------L----|--L--------L----|--------------------|
B ||--0--------L----|---L--------L----|--L--------L----|--8--8--8--8--7--5--|


  H        Q        H        Q       H        Q       E  E  E  E  E  E   
----------------|-----------------|----------------|--------------------|
----------------|-----------------|----------------|--------------------|
----------------|-----------------|----------------|--------------------|
--0--------L----|---L--------L----|--L--------L----|--------------------|
--0--------L----|---L--------L----|--L--------L----|--------------------|
--0--------L----|---L--------L----|--L--------L----|--3--3--3--3--5--7--|


  Q    Q    Q                 
-----------------|-----|-----|
-----------------|-----|-----|
-----------------|-----|-----|
--0--------------|-----|-----|
--0--------------|-----|-----|
--0--------------|-----|-----|


   Pickslide                                                                   
   T         T  T  T  T  T  T  T  T  T  T  T  T  T  T  T  T  T  T  T  T T T T  
--30--------29-28-27-26-25-24-23-22-21-20-19-18-17-16-15-14-13-12-11-10-9-8-7-|
--30--------29-28-27-26-25-24-23-22-21-20-19-18-17-16-15-14-13-12-11-10-9-8-7-|
------------------------------------------------------------------------------|
------------------------------------------------------------------------------|
------------------------------------------------------------------------------|
------------------------------------------------------------------------------|


  H        Q        H        Q       H        Q       E  E  E  E  E  E         
----------------|-----------------|----------------|--------------------|-----|
----------------|-----------------|----------------|--------------------|-----|
----------------|-----------------|----------------|--------------------|-----|
--0--------L----|---L--------L----|--L--------L----|--------------------|-----|
--0--------L----|---L--------L----|--L--------L----|--------------------|-----|
--0--------L----|---L--------L----|--L--------L----|--3--3--3--3--5--7--|-----|


        PM PM         PM PM PM PM         PM PM  
        S  S  S S S S S  S  S  S  S S S S S  S   
-----|------------------------------------------|
-----|------------------------------------------|
-----|------------------------------------------|
-----|------------------------------------------|
-----|------------------------------------------|
-----|--0--0--8-0-7-0-0--0--0--0--5-0-3-0-0--0--|


  PM PM                                PM PM         PM PM PM PM         PM PM  
  S  S  S S S S S S S S S S S S S S    S  S  S S S S S  S  S  S  S S S S S  S   
------------------------------------|------------------------------------------|
------------------------------------|------------------------------------------|
------------------------------------|------------------------------------------|
------------------------------------|------------------------------------------|
------------------------------------|------------------------------------------|
--0--0--8-0-7-0-5-0-7-0-5-0-3-0-5-0-|--0--0--8-0-7-0-0--0--0--0--5-0-3-0-0--0--|


  PM PM                                PM PM         PM PM PM PM         PM PM  
  S  S  S S S S S S S S S S S S S S    S  S  S S S S S  S  S  S  S S S S S  S   
------------------------------------|------------------------------------------|
------------------------------------|------------------------------------------|
------------------------------------|------------------------------------------|
------------------------------------|------------------------------------------|
------------------------------------|------------------------------------------|
--0--0--8-0-7-0-5-0-7-0-5-0-3-0-5-0-|--0--0--8-0-7-0-0--0--0--0--5-0-3-0-0--0--|


  PM PM             PM PM PM PM PM PM PM PM  
  S  S  S S S S S S S  S  S  S  S  S  S  S   
--------------------------------------------|
--------------------------------------------|
--------------------------------------------|
--------------------5--7--5--3--5--3--2--3--|
--------------------------------------------|
--0--0--8-0-7-0-5-0-------------------------|


  PM PM         PM PM PM PM PM PM     PM PM  
  S  S  S S S S S  S  S  S  S  S  S S S  S   
--------------------------------------------|
--------------------------------------------|
--------------------------------------------|
--------------------------------------------|
--------------------------------------------|
--0--0--3-0-3-0-0--0--0--0--0--0--3-0-0--0--|


  PM PM         PM PM                  
  S  S  S S S S S  S  S S S S S S S S  
--------------------------------------|
--------------------------------------|
--------------------------------------|
--------------------------------------|
--------------------------------------|
--0--0--3-0-3-0-0--0--3-0-2-3-5-3-2-3-|


  PM PM         PM PM PM PM PM PM     PM PM  
  S  S  S S S S S  S  S  S  S  S  S S S  S   
--------------------------------------------|
--------------------------------------------|
--------------------------------------------|
--------------------------------------------|
--------------------------------------------|
--0--0--3-0-3-0-0--0--0--0--0--0--3-0-0--0--|


  PM PM         PM PM                  
  S  S  S S S S S  S  S S S S S S S S  
--------------------------------------|
--------------------------------------|
--------------------------------------|
--------------------------------------|
--------------------------------------|
--0--0--3-0-3-0-0--0--3-0-2-3-5-3-2-3-|


  PM PM         PM PM PM PM PM PM     PM PM  
  S  S  S S S S S  S  S  S  S  S  S S S  S   
--------------------------------------------|
--------------------------------------------|
--------------------------------------------|
--------------------------------------------|
--------------------------------------------|
--0--0--3-0-3-0-0--0--0--0--0--0--3-0-0--0--|


  PM PM         PM PM                  
  S  S  S S S S S  S  S S S S S S S S  
--------------------------------------|
--------------------------------------|
--------------------------------------|
----------------------7---5-7-8-7-5-7-|
------------------------8-------------|
--0--0--3-0-3-0-0--0------------------|


  PM PM         PM PM PM PM PM PM     PM PM  
  S  S  S S S S S  S  S  S  S  S  S S S  S   
--------------------------------------------|
--------------------------------------------|
--------------------------------------------|
--------------------------------------------|
--------------------------------------------|
--0--0--3-0-3-0-0--0--0--0--0--0--3-0-0--0--|


  PM PM         PM PM                                       PM PM  
  S  S  S S S S S  S  S S S S S S S S    Q    Q    E  E  E  S  S   
--------------------------------------|---------------------------|
--------------------------------------|---------------------------|
--------------------------------------|---------------------------|
----------------------7---5-7-8-7-5-7-|--8----7----5--------------|
------------------------8-------------|---------------8--5--5--5--|
--0--0--3-0-3-0-0--0------------------|---------------------------|


  S E  S E  E  Q    E   E     E  E  E  E  E  E  E  E   
---------------------------|--------------------------|
---------------------------|--------------------------|
---------------------------|--7--7--7--7--7--7--7--7--|
---------------------------|--7--7--7--7--7--7--7--7--|
--7----5----5--7----L\-----|--5--5--5--5--5--5--5--5--|
---------------------------|--------------------------|


  E  E  E  E  E  E  E  E     E  E  E  E  E  E  E  E   
--------------------------|--------------------------|
--------------------------|--------------------------|
--7--7--7--7--7--7--7--7--|--3--3--3--3--3--3--3--3--|
--7--7--7--7--7--7--7--7--|--3--3--3--3--3--3--3--3--|
--5--5--5--5--5--5--5--5--|--1--1--1--1--1--1--1--1--|
--------------------------|--------------------------|


  E  E  E  E  E  E  E  E     E  E  E  E  E  E  E  E   
--------------------------|--------------------------|
--------------------------|--------------------------|
--3--3--3--3--3--3--3--3--|--------------------------|
--3--3--3--3--3--3--3--3--|--3--3--3--3--3--3--3--3--|
--1--1--1--1--1--1--1--1--|--3--3--3--3--3--3--3--3--|
--------------------------|--3--3--3--3--3--3--3--3--|


  E  E  E  E  E  E  E  E     E  E  E  E  E  E  E  E   
--------------------------|--------------------------|
--------------------------|--------------------------|
--------------------------|--2--2--2--2--2--2--2--2--|
--3--3--3--3--3--3--3--3--|--2--2--2--2--2--2--2--2--|
--3--3--3--3--3--3--3--3--|--0--0--0--0--0--0--0--0--|
--3--3--3--3--3--3--3--3--|--------------------------|


                                     PM PM         PM PM PM PM         PM PM  
  S S S S S S S S S S S S S S S S    S  S  S S S S S  S  S  S  S S S S S  S   
----------------------------------|------------------------------------------|
----------------------------------|------------------------------------------|
--2-2-2-2-2-2-2-2-----------------|------------------------------------------|
--2-2-2-2-2-2-2-2-----------------|------------------------------------------|
--0-0-0-0-0-0-0-0-----------------|------------------------------------------|
------------------3-0-2-3-5-3-2-3-|--0--0--8-0-7-0-0--0--0--0--5-0-3-0-0--0--|


  PM PM                                PM PM         PM PM PM PM         PM PM  
  S  S  S S S S S S S S S S S S S S    S  S  S S S S S  S  S  S  S S S S S  S   
------------------------------------|------------------------------------------|
------------------------------------|------------------------------------------|
------------------------------------|------------------------------------------|
------------------------------------|------------------------------------------|
------------------------------------|------------------------------------------|
--0--0--8-0-7-0-5-0-7-0-5-0-3-0-5-0-|--0--0--8-0-7-0-0--0--0--0--5-0-3-0-0--0--|


  PM PM             PM PM PM PM PM PM PM PM  
  S  S  S S S S S S S  S  S  S  S  S  S  S   
--------------------------------------------|
--------------------------------------------|
--------------------------------------------|
--------------------5--7--5--3--5--3--2--3--|
--------------------------------------------|
--0--0--8-0-7-0-5-0-------------------------|


  PM PM         PM PM PM PM PM PM     PM PM  
  S  S  S S S S S  S  S  S  S  S  S S S  S   
--------------------------------------------|
--------------------------------------------|
--------------------------------------------|
--------------------------------------------|
--------------------------------------------|
--0--0--3-0-3-0-0--0--0--0--0--0--3-0-0--0--|


  PM PM         PM PM                  
  S  S  S S S S S  S  S S S S S S S S  
--------------------------------------|
--------------------------------------|
--------------------------------------|
--------------------------------------|
--------------------------------------|
--0--0--3-0-3-0-0--0--3-0-2-3-5-3-2-3-|


  PM PM         PM PM PM PM PM PM     PM PM  
  S  S  S S S S S  S  S  S  S  S  S S S  S   
--------------------------------------------|
--------------------------------------------|
--------------------------------------------|
--------------------------------------------|
--------------------------------------------|
--0--0--3-0-3-0-0--0--0--0--0--0--3-0-0--0--|


  PM PM         PM PM                  
  S  S  S S S S S  S  S S S S S S S S  
--------------------------------------|
--------------------------------------|
--------------------------------------|
--------------------------------------|
--------------------------------------|
--0--0--3-0-3-0-0--0--3-0-2-3-5-3-2-3-|


  PM PM         PM PM PM PM PM PM     PM PM  
  S  S  S S S S S  S  S  S  S  S  S S S  S   
--------------------------------------------|
--------------------------------------------|
--------------------------------------------|
--------------------------------------------|
--------------------------------------------|
--0--0--3-0-3-0-0--0--0--0--0--0--3-0-0--0--|


  PM PM         PM PM                  
  S  S  S S S S S  S  S S S S S S S S  
--------------------------------------|
--------------------------------------|
--------------------------------------|
----------------------7---5-7-8-7-5-7-|
------------------------8-------------|
--0--0--3-0-3-0-0--0------------------|


  PM PM         PM PM PM PM PM PM     PM PM  
  S  S  S S S S S  S  S  S  S  S  S S S  S   
--------------------------------------------|
--------------------------------------------|
--------------------------------------------|
--------------------------------------------|
--------------------------------------------|
--0--0--3-0-3-0-0--0--0--0--0--0--3-0-0--0--|


  PM PM         PM PM                                          
  S  S  S S S S S  S  S S S S S S S S    Q    Q    E  E  Q     
--------------------------------------|-----------------------|
--------------------------------------|-----------------------|
--------------------------------------|-----------------------|
----------------------7---5-7-8-7-5-7-|--8----7----5----------|
------------------------8-------------|---------------8--7----|
--0--0--3-0-3-0-0--0------------------|-----------------------|


                      PH                               
  E  E  E  E  Q       Q       E  E  E  E  E  E  E  E   
---------------------------|--------------------------|
---------------------------|--------------------------|
---------------------------|--7--7--7--7--7--7--7--7--|
--------------3b----<>2----|--7--7--7--7--7--7--7--7--|
--L--5--4--5---------------|--5--5--5--5--5--5--5--5--|
---------------------------|--------------------------|


  E  E  E  E  E  E  E  E     E  E  E  E  E  E  E  E   
--------------------------|--------------------------|
--------------------------|--------------------------|
--7--7--7--7--7--7--7--7--|--3--3--3--3--3--3--3--3--|
--7--7--7--7--7--7--7--7--|--3--3--3--3--3--3--3--3--|
--5--5--5--5--5--5--5--5--|--1--1--1--1--1--1--1--1--|
--------------------------|--------------------------|


  E  E  E  E  E  E  E  E     E  E  E  E  E  E  E  E   
--------------------------|--------------------------|
--------------------------|--------------------------|
--3--3--3--3--3--3--3--3--|--------------------------|
--3--3--3--3--3--3--3--3--|--3--3--3--3--3--3--3--3--|
--1--1--1--1--1--1--1--1--|--3--3--3--3--3--3--3--3--|
--------------------------|--3--3--3--3--3--3--3--3--|


  E  E  E  E  E  E  E  E     E  E  E  E  E  E  E  E   
--------------------------|--------------------------|
--------------------------|--------------------------|
--------------------------|--2--2--2--2--2--2--2--2--|
--3--3--3--3--3--3--3--3--|--2--2--2--2--2--2--2--2--|
--3--3--3--3--3--3--3--3--|--0--0--0--0--0--0--0--0--|
--3--3--3--3--3--3--3--3--|--------------------------|


  S S S S S S S S S S S S S S S S    E  E  E  E  E  E  E  E   
----------------------------------|--------------------------|
----------------------------------|--------------------------|
--2-2-2-2-2-2-2-2-----------------|--7--7--7--7--7--7--7--7--|
--2-2-2-2-2-2-2-2-----------------|--7--7--7--7--7--7--7--7--|
--0-0-0-0-0-0-0-0-----------------|--5--5--5--5--5--5--5--5--|
------------------3-0-2-3-5-3-2-3-|--------------------------|


  E  E  E  E  E  E  E  E     E  E  E  E  E  E  E  E   
--------------------------|--------------------------|
--------------------------|--------------------------|
--7--7--7--7--7--7--7--7--|--3--3--3--3--3--3--3--3--|
--7--7--7--7--7--7--7--7--|--3--3--3--3--3--3--3--3--|
--5--5--5--5--5--5--5--5--|--1--1--1--1--1--1--1--1--|
--------------------------|--------------------------|


  E  E  E  E  E  E  E  E     E  E  E  E  E  E  E  E   
--------------------------|--------------------------|
--------------------------|--------------------------|
--3--3--3--3--3--3--3--3--|--------------------------|
--3--3--3--3--3--3--3--3--|--3--3--3--3--3--3--3--3--|
--1--1--1--1--1--1--1--1--|--3--3--3--3--3--3--3--3--|
--------------------------|--3--3--3--3--3--3--3--3--|


  E  E  E  E  E  E  E  E     E  E  E  E  E  E  E  E   
--------------------------|--------------------------|
--------------------------|--------------------------|
--------------------------|--2--2--2--2--2--2--2--2--|
--3--3--3--3--3--3--3--3--|--2--2--2--2--2--2--2--2--|
--3--3--3--3--3--3--3--3--|--0--0--0--0--0--0--0--0--|
--3--3--3--3--3--3--3--3--|--------------------------|


                                             PM PM               
  S S S S S S S S S S S S S S S S    Q    E  S  S  S S S S Q     
----------------------------------|-----------------------------|
----------------------------------|-----------------------------|
--2-2-2-2-2-2-2-2-----------------|-----------------------------|
--2-2-2-2-2-2-2-2-----------------|-----------------------------|
--0-0-0-0-0-0-0-0-----------------|----------------1-4-1-0-5----|
------------------3-0-2-3-5-3-2-3-|--0----L--0--0---------------|


        PM PM PM PM   PM PM   PM   PM              PM PM               
  Q     S  S  S  S  S S  S  S S  S S  S    Q    E  S  S  S S S S Q     
----------------------------------------|-----------------------------|
----------------------------------------|-----------------------------|
----------------------------------------|-----------------------------|
----------------------------------------|-----------------------------|
--L\----------------7-------8----8----8-|----------------1-4-1-0-5----|
--------0--0--0--0----0--0----0----0----|--0----L--0--0---------------|


                                             PM PM               
  S S S S S S S S S S S S S S S S    Q    E  S  S  S S S S Q     
----------------------------------|-----------------------------|
----------------------------------|-----------------------------|
----------------------------------|-----------------------------|
----------------------------------|-----------------------------|
--5-4-1-4-3-1-3-1-----------------|----------------1-4-1-0-5----|
------------------7-8-7-5-7-5-3-5-|--0----L--0--0---------------|


        PM PM PM PM   PM PM   PM   PM              PM PM               
  Q     S  S  S  S  S S  S  S S  S S  S    Q    E  S  S  S S S S Q     
----------------------------------------|-----------------------------|
----------------------------------------|-----------------------------|
----------------------------------------|-----------------------------|
----------------------------------------|-----------------------------|
--L\----------------7-------8----8----8-|----------------1-4-1-0-5----|
--------0--0--0--0----0--0----0----0----|--0----L--0--0---------------|


  S S S S S S S S S S S S S S S S    S S S S S S S S S S S S S S S S  
----------------------------------|----------------------------------|
----------------------------------|----------------------------------|
----------------------------------|----------------------------------|
----------------------------------|--8-7-5-7-5-4-5-4-5-7-5-4-5-7-8-7-|
--5-4-1-4-3-1-3-1-----------------|----------------------------------|
------------------7-8-7-5-7-5-3-5-|----------------------------------|


  PM PM         PM PM PM PM         PM PM       
  S  S  S S S S S  S  S  S  S S S S S  S        
------------------------------------------|----|
------------------------------------------|----|
------------------------------------------|----|
------------------------------------------|----|
------------------------------------------|----|
--0--0--8-0-7-0-0--0--0--0--5-0-3-0-0--0--|----|


  E   E    Q      E    Q      E    
-----13---13-----15---15-----15---|
-----16b--16b----18b--18b----18b--|
----------------------------------|
----------------------------------|
----------------------------------|
----------------------------------|


                                                  PH    
            |--3--|  |--3--|  |--3--|  |--3--|          
  E   S  S  S  S  S  S  S  S  S  S  S  S  S  S    Q     
--L--15-17-18-17-15------------------------------------|
--L-----------------18-17-15-------------------<>18----|
-----------------------------17-15-14------------------|
--------------------------------------17-15-14---------|
-------------------------------------------------------|
-------------------------------------------------------|


   S  S  S  S  S  S  S  S  S  S  S  S  S  S  S  S  
--------------------------------------------------|
--------------------------------------------------|
--------14-15-14-15-17-15-17-19-17-15-17-15-14-15-|
--15-17-------------------------------------------|
--------------------------------------------------|
--------------------------------------------------|


                           |--3--|  |--3--|  |--3--|  |--3--|  
   S  S  S  S  S  S  S  S  S  S  S  S  S  S  S  S  S  S  S  S  
-----------------------------------------------------17-18-20-|
--------------15----------13-15-13----------15-17-18----------|
-----14-15-17----17-15-14----------15-17-18-------------------|
--17----------------------------------------------------------|
--------------------------------------------------------------|
--------------------------------------------------------------|


   E    Q      E    Q      Q      
--20b--20b----20b--20b----20b----|
---------------------------------|
---------------------------------|
---------------------------------|
---------------------------------|
---------------------------------|


   |--3--|  |--3--|  |--3--|  |--3--|  |--3--|  |--3--|  |--3--|  |--3--|  |--3-
   T  T  T  T  T  T  T  T  T  T  T  T  T  T  T  T  T  T  T  T  T  T  T  T  T  T 
--15-15-17-17-18-18-17-17-15-15-17-17-18-18-20-20-18-18-17-17-15-15-17-17-15-15-
--------------------------------------------------------------------------------
--------------------------------------------------------------------------------
--------------------------------------------------------------------------------
--------------------------------------------------------------------------------
--------------------------------------------------------------------------------


         |--3--|  |--3--|  |--3--|  |--3--|  |--3--|  |--3--|  |--3--|  
   S  S  S  S  S  S  S  S  S  S  S  S  S  S  S  S  S  S  S  S  S  S  S  
--15-17-18-17-15-------------------------------------------------------|
-----------------18-17-15----------------------------------------------|
--------------------------19-17-15-15-17-19-17-15-15-17-19-17-15-15-17-|
-----------------------------------------------------------------------|
-----------------------------------------------------------------------|
-----------------------------------------------------------------------|


   |--3--|  |--3--|  |--3--|  |--3--|                         
   S  S  S  S  S  S  S  S  S  S  S  S  E   E   S  S  S  T  T  
------------------------------------------18--17-15----------|
--15-15-17-18-17-17-18-20-18-17-17-18-20------------17-15-17-|
-------------------------------------------------------------|
-------------------------------------------------------------|
-------------------------------------------------------------|
-------------------------------------------------------------|


                                                               |--3--|          
   T  T  T  T  T  T  T  T  T  T  T  T  T  T  T  T  T  T  T  T  S  S  S  T  T  T 
--------------------------------------------------------------------------------
--18-18-17-17-15-15-17-17-18-18-17-17-15-15-17-17-18-18-20-20-17-18-20-18-17-18-
--------------------------------------------------------------------------------
--------------------------------------------------------------------------------
--------------------------------------------------------------------------------
--------------------------------------------------------------------------------


   W                   W                   E  E  E  E  E  E  E  E   
--22----------------|--L----------------|--------------------------|
--------------------|-------------------|--------------------------|
--------------------|-------------------|--3--3--3--3--3--3--3--3--|
--------------------|-------------------|--3--3--3--3--3--3--3--3--|
--------------------|-------------------|--1--1--1--1--1--1--1--1--|
--------------------|-------------------|--------------------------|


  E  E  E  E  E  E  E  E     E  E  E  E  E  E  E  E   
--------------------------|--------------------------|
--------------------------|--------------------------|
--3--3--3--3--3--3--3--3--|--------------------------|
--3--3--3--3--3--3--3--3--|--3--3--3--3--3--3--3--3--|
--1--1--1--1--1--1--1--1--|--3--3--3--3--3--3--3--3--|
--------------------------|--3--3--3--3--3--3--3--3--|


  E  E  E  E  E  E  E  E     E  E  E  E  E  E  E  E   
--------------------------|--------------------------|
--------------------------|--------------------------|
--------------------------|--2--2--2--2--2--2--2--2--|
--3--3--3--3--3--3--3--3--|--2--2--2--2--2--2--2--2--|
--3--3--3--3--3--3--3--3--|--0--0--0--0--0--0--0--0--|
--3--3--3--3--3--3--3--3--|--------------------------|


  S S S S S S S S S S S S S S S S  
----------------------------------|
----------------------------------|
--2-2-2-2-2-2-2-2-----------------|
--2-2-2-2-2-2-2-2-----------------|
--0-0-0-0-0-0-0-0-----------------|
------------------3-0-2-3-5-3-2-3-|


  PM PM PM PM PM PM PM PM PM PM PM PM PM PM PM PM  
  S  S  S  S  S  S  S  S  S  S  S  S  S  S  S  S   
--------------------------------------------------|
--------------------------------------------------|
--------------------------------------------------|
--------------------------------------------------|
--5--5--5--5--5--5--5--5--5--5--5--5--5--5--5--5--|
--------------------------------------------------|


  PM PM PM PM PM PM PM PM PM PM PM PM PM PM PM PM  
  S  S  S  S  S  S  S  S  S  S  S  S  S  S  S  S   
--------------------------------------------------|
--------------------------------------------------|
--------------------------------------------------|
--------------------------------------------------|
--5--5--5--5--5--5--5--5--5--5--5--5--5--5--5--5--|
--------------------------------------------------|


  PM PM PM PM PM PM PM PM PM PM PM PM PM PM PM PM  
  S  S  S  S  S  S  S  S  S  S  S  S  S  S  S  S   
--------------------------------------------------|
--------------------------------------------------|
--------------------------------------------------|
--------------------------------------------------|
--1--1--1--1--1--1--1--1--1--1--1--1--1--1--1--1--|
--------------------------------------------------|


  PM PM PM PM PM PM PM PM PM PM PM PM PM PM PM PM  
  S  S  S  S  S  S  S  S  S  S  S  S  S  S  S  S   
--------------------------------------------------|
--------------------------------------------------|
--------------------------------------------------|
--------------------------------------------------|
--1--1--1--1--1--1--1--1--1--1--1--1--1--1--1--1--|
--------------------------------------------------|


  PM PM PM PM PM PM PM PM PM PM PM PM PM PM PM PM  
  S  S  S  S  S  S  S  S  S  S  S  S  S  S  S  S   
--------------------------------------------------|
--------------------------------------------------|
--------------------------------------------------|
--------------------------------------------------|
--------------------------------------------------|
--3--3--3--3--3--3--3--3--3--3--3--3--3--3--3--3--|


  PM PM PM PM PM PM PM PM PM PM PM PM PM PM PM PM  
  S  S  S  S  S  S  S  S  S  S  S  S  S  S  S  S   
--------------------------------------------------|
--------------------------------------------------|
--------------------------------------------------|
--------------------------------------------------|
--------------------------------------------------|
--3--3--3--3--3--3--3--3--3--3--3--3--3--3--3--3--|


  PM PM PM PM PM PM PM PM PM PM PM PM PM PM PM PM  
  S  S  S  S  S  S  S  S  S  S  S  S  S  S  S  S   
--------------------------------------------------|
--------------------------------------------------|
--------------------------------------------------|
--------------------------------------------------|
--0--0--0--0--0--0--0--0--0--0--0--0--0--0--0--0--|
--------------------------------------------------|


  PM PM PM PM PM PM PM PM                            PM PM               
  S  S  S  S  S  S  S  S  S S S S S S S S    Q    E  S  S  S S S S Q     
------------------------------------------|-----------------------------|
------------------------------------------|-----------------------------|
------------------------------------------|-----------------------------|
------------------------------------------|-----------------------------|
--0--0--0--0--0--0--0--0------------------|----------------1-4-1-0-5----|
--------------------------3-0-2-3-5-3-2-3-|--0----L--0--0---------------|


        PM PM PM PM   PM PM   PM   PM              PM PM               
  Q     S  S  S  S  S S  S  S S  S S  S    Q    E  S  S  S S S S Q     
----------------------------------------|-----------------------------|
----------------------------------------|-----------------------------|
----------------------------------------|-----------------------------|
----------------------------------------|-----------------------------|
--L\----------------7-------8----8----8-|----------------1-4-1-0-5----|
--------0--0--0--0----0--0----0----0----|--0----L--0--0---------------|


                                     PM PM         PM PM PM PM         PM PM  
  S S S S S S S S S S S S S S S S    S  S  S S S S S  S  S  S  S S S S S  S   
----------------------------------|------------------------------------------|
----------------------------------|------------------------------------------|
----------------------------------|------------------------------------------|
----------------------------------|------------------------------------------|
--5-4-1-4-3-1-3-1-----------------|------------------------------------------|
------------------7-8-7-5-7-5-3-5-|--0--0--8-0-7-0-0--0--0--0--5-0-3-0-0--0--|


  PM PM                                PM PM         PM PM PM PM         PM PM  
  S  S  S S S S S S S S S S S S S S    S  S  S S S S S  S  S  S  S S S S S  S   
------------------------------------|------------------------------------------|
------------------------------------|------------------------------------------|
------------------------------------|------------------------------------------|
------------------------------------|------------------------------------------|
------------------------------------|------------------------------------------|
--0--0--8-0-7-0-5-0-7-0-5-0-3-0-5-0-|--0--0--8-0-7-0-0--0--0--0--5-0-3-0-0--0--|


  PM PM                                                            
  S  S  S S S S S S S S S S S S S S    Q    Q    Q    Q            
------------------------------------|----------------------|-----||
------------------------------------|----------------------|-----||
------------------------------------|----------------------|-----||
--------------------5-3-2-0-3-2-0---|--0-------------------|-----||
----------------------------------4-|--0-------------------|-----||
--0--0--8-0-7-0-5-0-----------------|--0-------------------|-----||


Guitar 2

      S  S E   E  E   E   E      E  E   E   E   E  E   
C#||-------------------------|------------------------|
G#||-------------------------|------------------------|
E ||--9-10-9------9----------|------9--10--12--10--9--|
B ||----------12-----12--10--|--12--------------------|
F#||-------------------------|------------------------|
B ||-------------------------|------------------------|


  S  S E   E  E   E   E      E  E   E  E  E  E     S  S E   E  E   E   E   
-------------------------|----------------------|-------------------------|
-------------------------|----------------------|-------------------------|
--9-10-9------9----------|----------------------|--9-10-9------9----------|
----------12-----12--10--|--12--8--10--7--8--5--|----------12-----12--10--|
-------------------------|----------------------|-------------------------|
-------------------------|----------------------|-------------------------|


   E  E   E   E   E  E     S  S E   E  E   E  E      E  E   E   E   E   E   
------------------------|------------------------|-------------13--12--10--|
------------------------|--8-10-8------8---------|------8--10--------------|
------9--10--12--10--9--|----------10-----10--9--|--10---------------------|
--12--------------------|------------------------|-------------------------|
------------------------|------------------------|-------------------------|
------------------------|------------------------|-------------------------|


  S  S E   E  E   E   E      E  E   E   E   E  E     S  S E   E  E   E   E   
-------------------------|------------------------|-------------------------|
-------------------------|------------------------|-------------------------|
--9-10-9------9----------|------9--10--12--10--9--|--9-10-9------9----------|
----------12-----12--10--|--12--------------------|----------12-----12--10--|
-------------------------|------------------------|-------------------------|
-------------------------|------------------------|-------------------------|


   E  E   E  E  E  E     S  S E   E  E   E   E      E  E   E   E   E  E   
----------------------|-------------------------|------------------------|
----------------------|-------------------------|------------------------|
----------------------|--9-10-9------9----------|------9--10--12--10--9--|
--12--8--10--7--8--5--|----------12-----12--10--|--12--------------------|
----------------------|-------------------------|------------------------|
----------------------|-------------------------|------------------------|


  S  S E   E  E   E  E      E  E   E   E   E   E   
------------------------|-------------13--12--10--|
--8-10-8------8---------|------8--10--------------|
----------10-----10--9--|--10---------------------|
------------------------|-------------------------|
------------------------|-------------------------|
------------------------|-------------------------|


  PM PM         PM PM PM PM         PM PM    PM PM                              
  S  S  S S S S S  S  S  S  S S S S S  S     S  S  S S S S S S S S S S S S S S  
------------------------------------------|------------------------------------|
------------------------------------------|------------------------------------|
------------------------------------------|------------------------------------|
------------------------------------------|------------------------------------|
------------------------------------------|------------------------------------|
--0--0--8-0-7-0-0--0--0--0--5-0-3-0-0--0--|--0--0--8-0-7-0-5-0-7-0-5-0-3-0-5-0-|


  PM PM         PM PM PM PM         PM PM  
  S  S  S S S S S  S  S  S  S S S S S  S   
------------------------------------------|
------------------------------------------|
------------------------------------------|
------------------------------------------|
------------------------------------------|
--0--0--8-0-7-0-0--0--0--0--5-0-3-0-0--0--|


  PM PM                                                  
                     |--3--|  |--3--|  |--3--|  |--3--|  
  S  S  S S S S S S  S  S  S  S  S  S  S  S  S  S  S  S  
--------------------17-13----------13-17-13----------13-|
--------------------------15----15----------15----15----|
-----------------------------14----------------14-------|
--------------------------------------------------------|
--------------------------------------------------------|
--0--0--8-0-7-0-5-0-------------------------------------|


  PM PM         PM PM PM PM         PM PM    PM PM                              
  S  S  S S S S S  S  S  S  S S S S S  S     S  S  S S S S S S S S S S S S S S  
------------------------------------------|------------------------------------|
------------------------------------------|------------------------------------|
------------------------------------------|------------------------------------|
------------------------------------------|------------------------------------|
------------------------------------------|------------------------------------|
--0--0--8-0-7-0-0--0--0--0--5-0-3-0-0--0--|--0--0--8-0-7-0-5-0-7-0-5-0-3-0-5-0-|


  PM PM         PM PM PM PM         PM PM  
  S  S  S S S S S  S  S  S  S S S S S  S   
------------------------------------------|
------------------------------------------|
------------------------------------------|
------------------------------------------|
------------------------------------------|
--0--0--8-0-7-0-0--0--0--0--5-0-3-0-0--0--|


  PM PM             PM PM PM PM PM PM PM PM  
  S  S  S S S S S S S  S  S  S  S  S  S  S   
--------------------------------------------|
--------------------------------------------|
--------------------------------------------|
--------------------2--3--2--0--2--0--------|
--------------------------------------2--3--|
--0--0--8-0-7-0-5-0-------------------------|


  PM PM         PM PM PM PM PM PM     PM PM  
  S  S  S S S S S  S  S  S  S  S  S S S  S   
--------------------------------------------|
--------------------------------------------|
--------------------------------------------|
--------------------------------------------|
--------------------------------------------|
--0--0--3-0-3-0-0--0--0--0--0--0--3-0-0--0--|


  PM PM         PM PM                  
  S  S  S S S S S  S  S S S S S S S S  
--------------------------------------|
--------------------------------------|
--------------------------------------|
--------------------------------------|
--------------------------------------|
--0--0--3-0-3-0-0--0--3-0-2-3-5-3-2-3-|


  PM PM         PM PM PM PM PM PM     PM PM  
  S  S  S S S S S  S  S  S  S  S  S S S  S   
--------------------------------------------|
--------------------------------------------|
--------------------------------------------|
--------------------------------------------|
--------------------------------------------|
--0--0--3-0-3-0-0--0--0--0--0--0--3-0-0--0--|


  PM PM         PM PM                  
  S  S  S S S S S  S  S S S S S S S S  
--------------------------------------|
--------------------------------------|
--------------------------------------|
--------------------------------------|
--------------------------------------|
--0--0--3-0-3-0-0--0--3-0-2-3-5-3-2-3-|


  PM PM         PM PM PM PM PM PM     PM PM  
  S  S  S S S S S  S  S  S  S  S  S S S  S   
--------------------------------------------|
--------------------------------------------|
--------------------------------------------|
--------------------------------------------|
--------------------------------------------|
--0--0--3-0-3-0-0--0--0--0--0--0--3-0-0--0--|


  PM PM         PM PM                  
  S  S  S S S S S  S  S S S S S S S S  
--------------------------------------|
--------------------------------------|
--------------------------------------|
----------------------3-0-2-3-5-3-2-3-|
--------------------------------------|
--0--0--3-0-3-0-0--0------------------|


  PM PM         PM PM PM PM PM PM     PM PM  
  S  S  S S S S S  S  S  S  S  S  S S S  S   
--------------------------------------------|
--------------------------------------------|
--------------------------------------------|
--------------------------------------------|
--------------------------------------------|
--0--0--3-0-3-0-0--0--0--0--0--0--3-0-0--0--|


  PM PM         PM PM                                       PM PM  
  S  S  S S S S S  S  S S S S S S S S    Q    Q    E  E  E  S  S   
--------------------------------------|---------------------------|
--------------------------------------|---------------------------|
--------------------------------------|---------------------------|
----------------------3-0-2-3-5-3-2-3-|--5----3----2--0-----------|
--------------------------------------|------------------1--1--1--|
--0--0--3-0-3-0-0--0------------------|---------------------------|


  S E  S E  E  Q    E   E      E   E   E   E   E   E   E   E   
---------------------------|------------------13--------------|
---------------------------|--------------15------15--13--15--|
---------------------------|--14------14----------------------|
---------------------------|------15--------------------------|
--4----1----1--4----L\-----|----------------------------------|
---------------------------|----------------------------------|


   E   E   E   E   E   E   E   E      E   E   E   E   E   E   E   E   
----------------------------------|----------------------------------|
--13------------------------------|------------------13--------------|
------15--14--12--14--15--14--15--|--14--12--14--15------15--14--15--|
----------------------------------|----------------------------------|
----------------------------------|----------------------------------|
----------------------------------|----------------------------------|


   E   E   E   E   E   E   E   E      E   E   E   E   E   E   E   E   
----------------------------------|----------------------------------|
----------------------------------|----------------------------------|
--14--12--------------12----------|------------------17--14------14--|
----------15--14--15------14------|------15------15----------15------|
------------------------------12--|--15------15----------------------|
----------------------------------|----------------------------------|


   E   E   E   E   E   E   E   E      H        E   E   Q     
------------------17--15--13------|-------------------------|
------17------17--------------17--|--17--------L--15--14----|
--17------17----------------------|-------------------------|
----------------------------------|-------------------------|
----------------------------------|-------------------------|
----------------------------------|-------------------------|


                                     PM PM         PM PM PM PM         PM PM  
   E   E   S  S  E   E   E   Q       S  S  S S S S S  S  S  S  S S S S S  S   
----------------------------------|------------------------------------------|
----------------14------14--17----|------------------------------------------|
--15--14--15-14-----15------------|------------------------------------------|
----------------------------------|------------------------------------------|
----------------------------------|------------------------------------------|
----------------------------------|--0--0--8-0-7-0-0--0--0--0--5-0-3-0-0--0--|


  PM PM                                PM PM         PM PM PM PM         PM PM  
  S  S  S S S S S S S S S S S S S S    S  S  S S S S S  S  S  S  S S S S S  S   
------------------------------------|------------------------------------------|
------------------------------------|------------------------------------------|
------------------------------------|------------------------------------------|
------------------------------------|------------------------------------------|
------------------------------------|------------------------------------------|
--0--0--8-0-7-0-5-0-7-0-5-0-3-0-5-0-|--0--0--8-0-7-0-0--0--0--0--5-0-3-0-0--0--|


  PM PM             PM PM PM PM PM PM PM PM  
  S  S  S S S S S S S  S  S  S  S  S  S  S   
--------------------------------------------|
--------------------------------------------|
--------------------------------------------|
--------------------2--3--2--0--2--0--------|
--------------------------------------2--3--|
--0--0--8-0-7-0-5-0-------------------------|


  PM PM         PM PM PM PM PM PM     PM PM  
  S  S  S S S S S  S  S  S  S  S  S S S  S   
--------------------------------------------|
--------------------------------------------|
--------------------------------------------|
--------------------------------------------|
--------------------------------------------|
--0--0--3-0-3-0-0--0--0--0--0--0--3-0-0--0--|


  PM PM         PM PM                  
  S  S  S S S S S  S  S S S S S S S S  
--------------------------------------|
--------------------------------------|
--------------------------------------|
--------------------------------------|
--------------------------------------|
--0--0--3-0-3-0-0--0--3-0-2-3-5-3-2-3-|


  PM PM         PM PM PM PM PM PM     PM PM  
  S  S  S S S S S  S  S  S  S  S  S S S  S   
--------------------------------------------|
--------------------------------------------|
--------------------------------------------|
--------------------------------------------|
--------------------------------------------|
--0--0--3-0-3-0-0--0--0--0--0--0--3-0-0--0--|


  PM PM         PM PM                  
  S  S  S S S S S  S  S S S S S S S S  
--------------------------------------|
--------------------------------------|
--------------------------------------|
--------------------------------------|
--------------------------------------|
--0--0--3-0-3-0-0--0--3-0-2-3-5-3-2-3-|


  PM PM         PM PM PM PM PM PM     PM PM  
  S  S  S S S S S  S  S  S  S  S  S S S  S   
--------------------------------------------|
--------------------------------------------|
--------------------------------------------|
--------------------------------------------|
--------------------------------------------|
--0--0--3-0-3-0-0--0--0--0--0--0--3-0-0--0--|


  PM PM         PM PM                  
  S  S  S S S S S  S  S S S S S S S S  
--------------------------------------|
--------------------------------------|
--------------------------------------|
----------------------3-0-2-3-5-3-2-3-|
--------------------------------------|
--0--0--3-0-3-0-0--0------------------|


  PM PM         PM PM PM PM PM PM     PM PM  
  S  S  S S S S S  S  S  S  S  S  S S S  S   
--------------------------------------------|
--------------------------------------------|
--------------------------------------------|
--------------------------------------------|
--------------------------------------------|
--0--0--3-0-3-0-0--0--0--0--0--0--3-0-0--0--|


  PM PM         PM PM                                          
  S  S  S S S S S  S  S S S S S S S S    Q    Q    E  E  Q     
--------------------------------------|-----------------------|
--------------------------------------|-----------------------|
--------------------------------------|-----------------------|
----------------------3-0-2-3-5-3-2-3-|--5----3----2--0-------|
--------------------------------------|------------------4----|
--0--0--3-0-3-0-0--0------------------|-----------------------|


  E  E  E  E  Q    Q        E   E   E   E   E   E   E   E   
------------------------|------------------13--------------|
------------------------|--------------15------15--13--15--|
------------------------|--14------14----------------------|
------------------------|------15--------------------------|
--L--1--0--1--5----4----|----------------------------------|
------------------------|----------------------------------|


   E   E   E   E   E   E   E   E      E   E   E   E   E   E   E   E   
----------------------------------|----------------------------------|
--13------------------------------|------------------13--------------|
------15--14--12--14--15--14--15--|--14--12--14--15------15--14--15--|
----------------------------------|----------------------------------|
----------------------------------|----------------------------------|
----------------------------------|----------------------------------|


   E   E   E   E   E   E   E   E      E   E   E   E   E   E   E   E   
----------------------------------|----------------------------------|
----------------------------------|----------------------------------|
--14--12--------------12----------|------------------17--14------14--|
----------15--14--15------14------|------15------15----------15------|
------------------------------12--|--15------15----------------------|
----------------------------------|----------------------------------|


   E   E   E   E   E   E   E   E      H        E   E   Q     
------------------17--15--13------|-------------------------|
------17------17--------------17--|--17--------L--15--14----|
--17------17----------------------|-------------------------|
----------------------------------|-------------------------|
----------------------------------|-------------------------|
----------------------------------|-------------------------|


   E   E   S  S  E   E   E   Q        E   E   E   E   E   E   E   E   
----------------------------------|------------------13--------------|
----------------14------14--17----|--------------15------15--13--15--|
--15--14--15-14-----15------------|--14------14----------------------|
----------------------------------|------15--------------------------|
----------------------------------|----------------------------------|
----------------------------------|----------------------------------|


   E   E   E   E   E   E   E   E      E   E   E   E   E   E   E   E   
----------------------------------|----------------------------------|
--13------------------------------|------------------13--------------|
------15--14--12--14--15--14--15--|--14--12--14--15------15--14--15--|
----------------------------------|----------------------------------|
----------------------------------|----------------------------------|
----------------------------------|----------------------------------|


   E   E   E   E   E   E   E   E      E   E   E   E   E   E   E   E   
----------------------------------|----------------------------------|
----------------------------------|----------------------------------|
--14--12--------------12----------|------------------17--14------14--|
----------15--14--15------14------|------15------15----------15------|
------------------------------12--|--15------15----------------------|
----------------------------------|----------------------------------|


   E   E   E   E   E   E   E   E      H        E   E   Q     
------------------17--15--13------|-------------------------|
------17------17--------------17--|--17--------L--15--14----|
--17------17----------------------|-------------------------|
----------------------------------|-------------------------|
----------------------------------|-------------------------|
----------------------------------|-------------------------|


                                             PM PM               
   E   E   S  S  E   E   E   Q       Q    E  S  S  S S S S Q     
----------------------------------|-----------------------------|
----------------14------14--17----|-----------------------------|
--15--14--15-14-----15------------|-----------------------------|
----------------------------------|-----------------------------|
----------------------------------|----------------1-4-1-0-5----|
----------------------------------|--0----L--0--0---------------|


        PM PM PM PM   PM PM   PM   PM              PM PM               
  Q     S  S  S  S  S S  S  S S  S S  S    Q    E  S  S  S S S S Q     
----------------------------------------|-----------------------------|
----------------------------------------|-----------------------------|
----------------------------------------|-----------------------------|
----------------------------------------|-----------------------------|
--L\----------------7-------8----8----8-|----------------1-4-1-0-5----|
--------0--0--0--0----0--0----0----0----|--0----L--0--0---------------|


                                             PM PM               
  S S S S S S S S S S S S S S S S    Q    E  S  S  S S S S Q     
----------------------------------|-----------------------------|
----------------------------------|-----------------------------|
----------------------------------|-----------------------------|
----------------------------------|-----------------------------|
--5-4-1-4-3-1-3-1-----------------|----------------5-7-5-0-8----|
------------------7-8-7-5-7-5-3-5-|--0----L--0--0---------------|


        PM PM PM PM    PM PM    PM    PM               PM PM               
  Q     S  S  S  S   S S  S   S S   S S   S    Q    E  S  S  S S S S Q     
--------------------------------------------|-----------------------------|
--------------------------------------------|-----------------------------|
--------------------------------------------|-----------------------------|
--------------------------------------------|-----------------------------|
--L\----------------10-------12----12----12-|----------------5-7-5-0-8----|
--------0--0--0--0-----0--0-----0-----0-----|--0----L--0--0---------------|


  S S S S S S S S S S S S S S S S    S S S S S S S S S S S S S S S S       
----------------------------------|----------------------------------|----|
----------------------------------|----------------------------------|----|
----------------------------------|----------------------------------|----|
----------------------------------|--5-4-1-4-3-1-3-1-----------------|----|
--5-4-1-4-3-1-3-1-----------------|------------------5-6-5-3-5-3-1-3-|----|
------------------7-8-7-5-7-5-3-5-|----------------------------------|----|


  PM PM                                PM PM         PM PM PM PM         PM PM  
  S  S  S S S S S S S S S S S S S S    S  S  S S S S S  S  S  S  S S S S S  S   
------------------------------------|------------------------------------------|
------------------------------------|------------------------------------------|
------------------------------------|------------------------------------------|
------------------------------------|------------------------------------------|
------------------------------------|------------------------------------------|
--0--0--8-0-7-0-5-0-7-0-5-0-3-0-5-0-|--0--0--8-0-7-0-0--0--0--0--5-0-3-0-0--0--|


  PM PM                                PM PM         PM PM PM PM         PM PM  
  S  S  S S S S S S S S S S S S S S    S  S  S S S S S  S  S  S  S S S S S  S   
------------------------------------|------------------------------------------|
------------------------------------|------------------------------------------|
------------------------------------|------------------------------------------|
------------------------------------|------------------------------------------|
------------------------------------|------------------------------------------|
--0--0--8-0-7-0-5-0-7-0-5-0-3-0-5-0-|--0--0--8-0-7-0-0--0--0--0--5-0-3-0-0--0--|


  PM PM                                PM PM         PM PM PM PM         PM PM  
  S  S  S S S S S S S S S S S S S S    S  S  S S S S S  S  S  S  S S S S S  S   
------------------------------------|------------------------------------------|
------------------------------------|------------------------------------------|
------------------------------------|------------------------------------------|
------------------------------------|------------------------------------------|
------------------------------------|------------------------------------------|
--0--0--8-0-7-0-5-0-7-0-5-0-3-0-5-0-|--0--0--8-0-7-0-0--0--0--0--5-0-3-0-0--0--|


  PM PM                                PM PM         PM PM PM PM         PM PM  
  S  S  S S S S S S S S S S S S S S    S  S  S S S S S  S  S  S  S S S S S  S   
------------------------------------|------------------------------------------|
------------------------------------|------------------------------------------|
------------------------------------|------------------------------------------|
------------------------------------|------------------------------------------|
------------------------------------|------------------------------------------|
--0--0--8-0-7-0-5-0-7-0-5-0-3-0-5-0-|--0--0--8-0-7-0-0--0--0--0--5-0-3-0-0--0--|


  PM PM                                                                 
  S  S  S S S S S S S S S S S S S S    S S S S S S S S S S S S S S S S  
------------------------------------|----------------------------------|
------------------------------------|----------------------------------|
------------------------------------|----------------------------------|
------------------------------------|----------1---------------3-------|
------------------------------------|--5-1-3-5---5-3-5-7-3-5-7---7-5-7-|
--0--0--8-0-7-0-5-0-7-0-5-0-3-0-5-0-|----------------------------------|


   E   E   E   E   E   E   E   E      E   E   E   E   E   E   E   E   
------------------13--------------|----------------------------------|
--------------15------15--13--15--|--13------------------------------|
--14------14----------------------|------15--14--12--14--15--14--15--|
------15--------------------------|----------------------------------|
----------------------------------|----------------------------------|
----------------------------------|----------------------------------|


   E   E   E   E   E   E   E   E      E   E   E   E   E   E   E   E   
----------------------------------|----------------------------------|
------------------13--------------|----------------------------------|
--14--12--14--15------15--14--15--|--14--12--------------12----------|
----------------------------------|----------15--14--15------14------|
----------------------------------|------------------------------12--|
----------------------------------|----------------------------------|


   E   E   E   E   E   E   E   E      E   E   E   E   E   E   E   E   
----------------------------------|------------------17--15--13------|
----------------------------------|------17------17--------------17--|
------------------17--14------14--|--17------17----------------------|
------15------15----------15------|----------------------------------|
--15------15----------------------|----------------------------------|
----------------------------------|----------------------------------|


   H        E   E   Q        E   E   S  S  E   E   E   Q     
-------------------------|----------------------------------|
--17--------L--15--14----|----------------14------14--17----|
-------------------------|--15--14--15-14-----15------------|
-------------------------|----------------------------------|
-------------------------|----------------------------------|
-------------------------|----------------------------------|


    Q    E   E    Q    E   E       Q    E   E   S  S  S  S  S  S  S  S  
--/22----L\-----/20----L\-----|--/18----L\-----17-18-17-15-17-15-------|
------------------------------|----------------------------------18-17-|
------------------------------|----------------------------------------|
------------------------------|----------------------------------------|
------------------------------|----------------------------------------|
------------------------------|----------------------------------------|


    Q    E   E    Q    E   E       Q    E   E   S  S  S  S  S  S  S  S  
--/22----L\-----/20----L\-----|--/18----L\-----17-18-17-15-17-15-------|
------------------------------|----------------------------------18-17-|
------------------------------|----------------------------------------|
------------------------------|----------------------------------------|
------------------------------|----------------------------------------|
------------------------------|----------------------------------------|


    Q    E   E    Q    E   E       Q    E   E   S  S  S  S  S  S  S  S  
--/22----L\-----/20----L\-----|--/18----L\-----17-18-17-15-17-15-------|
------------------------------|----------------------------------18-17-|
------------------------------|----------------------------------------|
------------------------------|----------------------------------------|
------------------------------|----------------------------------------|
------------------------------|----------------------------------------|


   S  S  S  S  S  S  S  S  S  S  S  S  S  S  S  S  
--------------------------------------------------|
--17-18-17-15-17-15-14-15-14----------------------|
-----------------------------15-18-15-14-15-14----|
-----------------------------------------------15-|
--------------------------------------------------|
--------------------------------------------------|


                                                        PH                
   S  S  S  S  S  S  S  S  S  S  S  S  S  S  S  S       W                 
--------------------------------------------------|----------------------|
--------------------------------------------------|--<>18----------------|
--12-14-15-12-15-14-12----------------------------|----------------------|
-----------------------15-14-12-------------------|----------------------|
--------------------------------16-13-12----------|----------------------|
-----------------------------------------15-14-12-|----------------------|


        PM PM PM PM   PM PM   PM   PM              PM PM               
  Q     S  S  S  S  S S  S  S S  S S  S    Q    E  S  S  S S S S Q     
----------------------------------------|-----------------------------|
--L\------------------------------------|-----------------------------|
----------------------------------------|-----------------------------|
----------------------------------------|-----------------------------|
--------------------7-------8----8----8-|----------------1-4-1-0-5----|
--------0--0--0--0----0--0----0----0----|--0----L--0--0---------------|


                                     PM PM         PM PM PM PM         PM PM  
  S S S S S S S S S S S S S S S S    S  S  S S S S S  S  S  S  S S S S S  S   
----------------------------------|------------------------------------------|
----------------------------------|------------------------------------------|
----------------------------------|------------------------------------------|
----------------------------------|------------------------------------------|
--5-4-1-4-3-1-3-1-----------------|------------------------------------------|
------------------7-8-7-5-7-5-3-5-|--0--0--8-0-7-0-0--0--0--0--5-0-3-0-0--0--|


  PM PM                                PM PM         PM PM PM PM         PM PM  
  S  S  S S S S S S S S S S S S S S    S  S  S S S S S  S  S  S  S S S S S  S   
------------------------------------|------------------------------------------|
------------------------------------|------------------------------------------|
------------------------------------|------------------------------------------|
------------------------------------|------------------------------------------|
------------------------------------|------------------------------------------|
--0--0--8-0-7-0-5-0-7-0-5-0-3-0-5-0-|--0--0--8-0-7-0-0--0--0--0--5-0-3-0-0--0--|


  PM PM                                                           
  S  S  S S S S S S S S S S S S S S    Q    Q    Q    Q           
------------------------------------|----------------------|----||
------------------------------------|----------------------|----||
--------------------3-2-0---2-0-----|----------------------|----||
--------------------------3-----3-2-|--0-------------------|----||
------------------------------------|--0-------------------|----||
--0--0--8-0-7-0-5-0-----------------|--0-------------------|----||

Guitar 3

(00:00)

      S  S E   E  E   E  E      E  E   E   E   E  E     S  S E   E  E   E  E   
C#||------------------------|------------------------|------------------------|
G#||--8-10-8------8---------|------8--10--11--10--8--|--8-10-8------8---------|
E ||----------10-----10--9--|--10--------------------|----------10-----10--9--|
B ||------------------------|------------------------|------------------------|
F#||------------------------|------------------------|------------------------|
B ||------------------------|------------------------|------------------------|


   E  E  E  E  E  E     S  S E   E  E   E  E      E  E   E   E   E  E   
---------------------|------------------------|------------------------|
---------------------|--8-10-8------8---------|------8--10--11--10--8--|
--10--7--9--5--7--3--|----------10-----10--9--|--10--------------------|
---------------------|------------------------|------------------------|
---------------------|------------------------|------------------------|
---------------------|------------------------|------------------------|


   S  S  E   E   E   E   E      E   E   E   E   E   E   
----------------------------|--------------17--15--13--|
--11-13-11------11----------|------11--13--------------|
------------14------14--12--|--14----------------------|
----------------------------|--------------------------|
----------------------------|--------------------------|
----------------------------|--------------------------|


  S  S E   E  E   E  E      E  E   E   E   E  E     S  S E   E  E   E  E   
------------------------|------------------------|------------------------|
--8-10-8------8---------|------8--10--11--10--8--|--8-10-8------8---------|
----------10-----10--9--|--10--------------------|----------10-----10--9--|
------------------------|------------------------|------------------------|
------------------------|------------------------|------------------------|
------------------------|------------------------|------------------------|


   E  E  E  E  E  E     S  S E   E  E   E  E      E  E   E   E   E  E   
---------------------|------------------------|------------------------|
---------------------|--8-10-8------8---------|------8--10--11--10--8--|
--10--7--9--5--7--3--|----------10-----10--9--|--10--------------------|
---------------------|------------------------|------------------------|
---------------------|------------------------|------------------------|
---------------------|------------------------|------------------------|


   S  S  E   E   E   E   E      E   E   E   E   E   E                           
----------------------------|--------------17--15--13--|-------|-------|-------|
--11-13-11------11----------|------11--13--------------|-------|-------|-------|
------------14------14--12--|--14----------------------|-------|-------|-------|
----------------------------|--------------------------|-------|-------|-------|
----------------------------|--------------------------|-------|-------|-------|
----------------------------|--------------------------|-------|-------|-------|


            |--3--|  |--3--|  |--3--|  |--3--|                                  
  H         S  S  S  S  S  S  S  S  S  S  S  S                                  
-----------20-17----------17-20-17----------17-|-------|-------|-------|-------|
-----------------18----18----------18----18----|-------|-------|-------|-------|
--------------------17----------------17-------|-------|-------|-------|-------|
-----------------------------------------------|-------|-------|-------|-------|
-----------------------------------------------|-------|-------|-------|-------|
-----------------------------------------------|-------|-------|-------|-------|

(02:55)

                                                    Q     E   E    Q    E   E   
-------|-------|-------|-------|-------|-------|--/18-----L\-----/17----L\-----|
-------|-------|-------|-------|-------|-------|-------------------------------|
-------|-------|-------|-------|-------|-------|-------------------------------|
-------|-------|-------|-------|-------|-------|-------------------------------|
-------|-------|-------|-------|-------|-------|-------------------------------|
-------|-------|-------|-------|-------|-------|-------------------------------|


    Q    E   E   S  S  S  S  S  S  S  S      Q     E   E    Q    E   E   
--/15----L\-----13-15-13-12-13-12-------|--/18-----L\-----/17----L\-----|
----------------------------------15-13-|-------------------------------|
----------------------------------------|-------------------------------|
----------------------------------------|-------------------------------|
----------------------------------------|-------------------------------|
----------------------------------------|-------------------------------|


    Q    E   E   S  S  S  S  S  S  S  S      Q     E   E    Q    E   E   
--/15----L\-----13-15-13-12-13-12-------|--/18-----L\-----/17----L\-----|
----------------------------------15-13-|-------------------------------|
----------------------------------------|-------------------------------|
----------------------------------------|-------------------------------|
----------------------------------------|-------------------------------|
----------------------------------------|-------------------------------|


    Q    E   E   S  S  S  S  S  S  S  S  
--/15----L\-----13-15-13-12-13-12-------|
----------------------------------15-13-|
----------------------------------------|
----------------------------------------|
----------------------------------------|
----------------------------------------|


   S  S  S  S  S  S  S  S  S  S  S  S  S  S  S  S  
--------------------------------------------------|
--13-15-13-11-13-11-10-11-10----------------------|
-----------------------------12-14-12-10-12-10----|
-----------------------------------------------12-|
--------------------------------------------------|
--------------------------------------------------|


                                                  PH                
  S  S  S S  S  S S  S  S S  S  S S  S  S S       W                 
--------------------------------------------|----------------------|
--------------------------------------------|----------------------|
--9-10-12-9-12-10-9-------------------------|--<>14----------------|
--------------------12-11-9-----------------|----------------------|
----------------------------13-10-8---------|----------------------|
------------------------------------12-11-9-|----------------------|


  Q     Q    Q    Q                                                             
-----------------------|-------|-------|-------|-------|-------|-------|-------|
-----------------------|-------|-------|-------|-------|-------|-------|-------|
--L\-------------------|-------|-------|-------|-------|-------|-------|-------|
-----------------------|-------|-------|-------|-------|-------|-------|-------|
-----------------------|-------|-------|-------|-------|-------|-------|-------|
-----------------------|-------|-------|-------|-------|-------|-------|-------|


-------||
-------||
-------||
-------||
-------||
-------||


Duration Legend
---------------
W - whole
H - half
Q - quarter
E - 8th
S - 16th
T - 32nd
X - 64th
. - note dotted
|-n-|  - n-tuplets


Tablature Legend
----------------
L - tied note
x - dead note
g - grace note
(n) - ghost note
> - accentuded note
NH - natural harmonic
AH - artificial harmonic
TH - tapped harmonic
SH - semi harmonic
PH - pitch harmonic
h - hammer on
p - pull off
b - bend
br - bendRelease
pb - preBend
pbr - preBendRelease
brb - bendReleaseBend
\n/ - tremolo bar dip
\n - tremolo bar dive
-/n - tremolo bar Release up
/n\ - tremolo bar inverted dip
/n - tremolo bar return
-\n - tremolo bar Release down
S - shift slide
s - legato slide
/ -  slide into from below or out of upwards
\ -  slide into from above or out of downwards
~ - vibrato
W - wide vibrato
tr - trill
TP - tremolo picking
T - tapping
S - slap
P - pop
< - fade in
^ - brush up
v - brush down


That is all! I hope this helped, and be sure to check out my cover if you are
having problems with the tab. Thanks, oh and one last thing... ROCK OUT!!!!
Добавлено: 16.10.2013
Другие материалы по этой песне:

Страница создана 04.06.2013
http://primanota.ru/black-veil-brides/victory-call-chords.htm
Привет, Гость.
Предлагаем пройти революционный курс по гитаре.
Подарок от PrimaNota.Ru, забирай!