PrimaNota.ru - самый крупный в мире бесплатный архив песенных текстов, аккордов, табулатур и нот


Black Veil Brides - Unbroken - текст песни, таба, видео

Регистрация Запомнить меня
Войти через:  Facebook Google Twitter Vk Yandex Mail.ru

Black Veil Brides - Unbroken - текст песни, таба, видео

Печатать
Просмотров: 567
----------------------------------------------------------------------------
                                 Unbroken
                             Black Veil Brides
----------------------------------------------------------------------------

The BVB army is back and with a song that seems to unleash their musical genius. The
only reason I will watch The Avengers is to find out if this song is actually played in it.
This song gains my respect in every way possible. The instrumentals are amazing and 
extremely fun to play. I hope you have as much excitement as I did while playing it. Enjoy!

Username: dkm817 (same on X box live)
Youtube Cover: http://www.youtube.com/watch?v=_ysYilRYtbM
Email: guitardrums@rockfan.com

Guitar 1 Rhythmic        (C# G# C# F# A# D#)
Guitar 2 Rhythmic Backup (C# G# C# F# A# D#)
Guitar 3 Lead            (C# G# C# F# A# D#)
Guitar 4 Lead Backup     (C# G# C# F# A# D#)

Tab Guide...
===================================================================
(end of measures)

===================================================================
===================================================================
(end of parts)

===================================================================
===================================================================
===================================================================
(end of song)

(If there is a “continued” it is because the numbers could not
fit on 1 line.)


Intro

Guitar 1 & 2
D#-----------------------------------------------------------------|
A#-----------------------------------------------------------------|
F#-----------------------------------------------------------------|
C#-------------2-3~~-2-3~~-3-5-3~~-------------------3-5-3-5-3-----|
G#-3-5~~-3-5~~---------------------0-1~~-0-1~~-------3-5-3-5-3-----|
C#---------------------------------------------3-5~~-3-5-3-5-3-0~~-|
Pm                                                   . . . . .

===================================================================

Guitar 1
D#-----------------------------------------------------------------|
A#-----------------------------------------------------------------|
F#-----------------------------------------------------------------|
C#-------------2-3~~-2-3~~-3-5-3~~-------------------3-5-3-5-3-----|
G#-3-5~~-3-5~~---------------------0-1~~-0-1~~-------3-5-3-5-3-----|
C#---------------------------------------------3-5~~-3-5-3-5-3-0~~-|
Pm                                                   . . . . .

Guitar 2
D#-----------------------------------------------------------------|
A#-----------------------------------------------------------------|
F#-----------------------------------------------------------------|
C#-2-3~~-2-3~~-5-7~~-5-7~~-7-8-7~~-------------------3-5-3-5-3-----|
G#---------------------------------3-5~~-3-5~~-------3-5-3-5-3-----|
C#---------------------------------------------3-5~~-3-5-3-5-3-0~~-|
Pm                                                   . . . . .

===================================================================

Guitar 1
D#-----------------------------------------------------------------|
A#-----------------------------------------------------------------|
F#-----------------------------------------------------------------|
C#-------------2-3~~-2-3~~-3-5-3~~-------------------3-5-3-5-3-----|
G#-3-5~~-3-5~~---------------------0-1~~-0-1~~-------3-5-3-5-3-----|
C#---------------------------------------------3-5~~-3-5-3-5-3-0~~-|
Pm                                                   . . . . .

Guitar 2
D#-----------------------------------------------------------------|
A#-----------------------------------------------------------------|
F#-----------------------------------------------------------------|
C#-2-3~~-2-3~~-5-7~~-5-7~~-7-8-7~~-------------------3-5-3-5-3-----|
G#---------------------------------3-5~~-3-5~~-------3-5-3-5-3-----|
C#---------------------------------------------3-5~~-3-5-3-5-3-0~~-|
Pm                                                   . . . . .

Guitar 3
D#-----------------------------------------------------------------|
A#-15~~~-------------15--13--12--13~~~-----------------------------|
F#-------14~~~-------------------------12~~~-----------------------|
C#-------------15~~~-------------------------14~~~--------------12-|
G#-------------------------------------------------15--12-13-15----|
C#-----------------------------------------------------------------|

Guitar 4
D#-13~~~-------------13--12--10--12~~~-----------------------------|
A#-------15~~~-------------------------13~~~-----------------------|
F#-------------14~~~-------------------------12~~~--------------14-|
C#-------------------------------------------------15--14-15-17----|
G#-----------------------------------------------------------------|
C#-----------------------------------------------------------------|

===================================================================

Guitar 1
D#-----------------------------------------------------------------|
A#-----------------------------------------------------------------|
F#-----------------------------------------------------------------|
C#-------------2-3~~-2-3~~-3-5-3~~-------------------3-5-3-5-3-----|
G#-3-5~~-3-5~~---------------------0-1~~-0-1~~-------3-5-3-5-3-----|
C#---------------------------------------------3-5~~-3-5-3-5-3-0~~-|
Pm                                                   . . . . .

Guitar 2
D#-----------------------------------------------------------------|
A#-----------------------------------------------------------------|
F#-----------------------------------------------------------------|
C#-2-3~~-2-3~~-5-7~~-5-7~~-7-8-7~~-------------------3-5-3-5-3-----|
G#---------------------------------3-5~~-3-5~~-------3-5-3-5-3-----|
C#---------------------------------------------3-5~~-3-5-3-5-3-0~~-|
Pm                                                   . . . . .

Guitar 3
D#-13~~~---------------13--12--13--15~~~-13~~~-15--17~~~-15~~~-17--|
A#-------15~~~-----------------------------------------------------|
F#-------------14~~~~~---------------------------------------------|
C#-----------------------------------------------------------------|
G#-----------------------------------------------------------------|
C#-----------------------------------------------------------------|

Guitar 4
D#-17~~~---------------17--15--17--18~~~-17~~~-18--20~~~-18~~~-20--|
A#-------18~~~-----------------------------------------------------|
F#-------------19~~~~~---------------------------------------------|
C#-----------------------------------------------------------------|
G#-----------------------------------------------------------------|
C#-----------------------------------------------------------------|

===================================================================
===================================================================


Verse 1

Guitar 3
D#-----------------------------------------------------------------
A#-15~~~~~~~~~~~~~~~~~~~~~~~~~~~~~~~~~~~~~~~~~~~~~~~~~~~~~~~~~~~~~-
F#-----------------------------------------------------------------|
C#-----------------------------------------------------------------|
G#-----------------------------------------------------------------|
C#-----------------------------------------------------------------|

Guitar 4
D#-22~~~~~~~~~~~~~~~~~~~~~~~~~~~~~~~~~~~~~~~~~~~~~~~~~~~~~~~~~~~~~-
A#-----------------------------------------------------------------|
F#-----------------------------------------------------------------|
C#-----------------------------------------------------------------|
G#-----------------------------------------------------------------|
C#-----------------------------------------------------------------|

===================================================================

Guitar 3
D#-17~~~~~~~~~~~~~~~~~~~~~~~~~~~~~-18~~~~~~~~~~~~~-----------------|
A#-------------------------------------------------18~~~~~~~~~~~~~-|
F#-----------------------------------------------------------------|
C#-----------------------------------------------------------------|
G#-----------------------------------------------------------------|
C#-----------------------------------------------------------------|

===================================================================
===================================================================


Pre Chorus 1

Guitar 1
D#-13~~~~~~~~~~~~~-13~~~~~~~~~~~~~-12~~~~~~~~~~~~~-12~~~~~---------|
A#---------15~~~~~~~~~~~~~-15~~~~~~~~~~~~~-15~~~~~~~~~~~~~---------|
F#-----------------------------------------------------------------|
C#---------------------------------------------------------12\~~~~-|
G#---------------------------------------------------------12\~~~~-|
C#---------------------------------------------------------12\~~~~-|

Guitar 3
D#-----------------------------------------------------------------|
A#-----------------------------------------------------------------|
F#-----------------------------------------------------------------|
C#---------------------------------------------------------12\~~~~-|
G#---------------------------------------------------------12\~~~~-|
C#---------------------------------------------------------12\~~~~-|

===================================================================
===================================================================


Chorus 1

Guitar 1 & 3
D#-----------------------------------------------------------------|
A#-----------------------------------------------------------------|
F#-5-7~~~~---------4-5~~~~-----------------------------------------|
C#-5-7~~~~-0~~~~~~-4-5~~~~-0~~~~~~-3-3-3-3-3-3-3-3-3-5-5-5-5-5-5-5-|
G#-3-5~~~~-0~~~~~~-2-3~~~~-0~~~~~~-3-3-3-3-3-3-3-3-3-5-5-5-5-5-5-5-|
C#---------0~~~~~~---------0~~~~~~-3-3-3-3-3-3-3-3-3-5-5-5-5-5-5-5-|

===================================================================

Guitar 1 & 3
D#-----------------------------------------------------------------|
A#-----------------------------------------------------------------|
F#-5-7~~~~---------4-5~~~~-----------------------------------------|
C#-5-7~~~~-0~~~~~~-4-5~~~~-0~~~~~~-3-3-3-3-3-3-3-3-----------------|
G#-3-5~~~~-0~~~~~~-2-3~~~~-0~~~~~~-3-3-3-3-3-3-3-3-----------------|
C#---------0~~~~~~---------0~~~~~~-3-3-3-3-3-3-3-3-3-2-0-2-3-2-0-2-|

===================================================================

Guitar 1 & 3
D#-----------------------------------------------------------------|
A#-----------------------------------------------------------------|
F#-5-7~~~~---------4-5~~~~-----------------------------------------|
C#-5-7~~~~-0~~~~~~-4-5~~~~-0~~~~~~-3-3-3-3-3-3-3-3-3-5-5-5-5-5-5-5-|
G#-3-5~~~~-0~~~~~~-2-3~~~~-0~~~~~~-3-3-3-3-3-3-3-3-3-5-5-5-5-5-5-5-|
C#---------0~~~~~~---------0~~~~~~-3-3-3-3-3-3-3-3-3-5-5-5-5-5-5-5-|

===================================================================

Guitar 1
D#-----------------------------------------------------------------|
A#-----------------------------------------------------------------|
F#-----------------------------------------------------------------|
C#-8---8---8---8---8---8---8---8---7---7---7---7-------------------|
G#-8---8---8---8---8---8---8---8---7---7---7---7---0---------------|
C#-8---8---8---8---8---8---8---8---7---7---7---7-----5-2-3-5-3-2-3-|

Guitar 3
D#-----------------------------------------------------------------|
A#-----------------------------------------------------------------|
F#-7---7---7---7---7---7---7---7---6---6---6---6---2-0-------------|
C#-x---x---x---x---x---x---x---x---x---x---x---x-------2-3-5-3-2-3-|
G#-5---5---5---5---5---5---5---5---4---4---4---4-------------------|
C#-----------------------------------------------------------------|

===================================================================
===================================================================


Bridge

Guitar 1
D#-----------------------------------------------------------------|
A#-----------------------------------------------------------------|
F#-----------------------------------------------------------------|
C#-------------2-3~~-2-3~~-3-5-3~~-------------------3-5-3-5-3-----|
G#-3-5~~-3-5~~---------------------0-1~~-0-1~~-------3-5-3-5-3-----|
C#---------------------------------------------3-5~~-3-5-3-5-3-0~~-|
Pm                                                   . . . . .

Guitar 2
D#-----------------------------------------------------------------|
A#-----------------------------------------------------------------|
F#-----------------------------------------------------------------|
C#-2-3~~-2-3~~-5-7~~-5-7~~-7-8-7~~-------------------3-5-3-5-3-----|
G#---------------------------------3-5~~-3-5~~-------3-5-3-5-3-----|
C#---------------------------------------------3-5~~-3-5-3-5-3-0~~-|
Pm                                                   . . . . .

Guitar 3
D#-----------------------------------------------------------------|
A#-15~~~-------------15--13--12--13~~~-----------------------------|
F#-------14~~~-------------------------12~~~-----------------------|
C#-------------15~~~-------------------------14~~~--------------12-|
G#-------------------------------------------------15--12-13-15----|
C#-----------------------------------------------------------------|

Guitar 4
D#-13~~~-------------13--12--10--12~~~-----------------------------|
A#-------15~~~-------------------------13~~~-----------------------|
F#-------------14~~~-------------------------12~~~--------------14-|
C#-------------------------------------------------15--14-15-17----|
G#-----------------------------------------------------------------|
C#-----------------------------------------------------------------|

===================================================================

Guitar 1
D#-----------------------------------------------------------------|
A#-----------------------------------------------------------------|
F#-----------------------------------------------------------------|
C#-------------2-3~~-2-3~~-3-5-3~~-------------------3-5-3-5-3-----|
G#-3-5~~-3-5~~---------------------0-1~~-0-1~~-------3-5-3-5-3-----|
C#---------------------------------------------3-5~~-3-5-3-5-3-0~~-|
Pm                                                   . . . . .

Guitar 2
D#-----------------------------------------------------------------|
A#-----------------------------------------------------------------|
F#-----------------------------------------------------------------|
C#-2-3~~-2-3~~-5-7~~-5-7~~-7-8-7~~-------------------3-5-3-5-3-----|
G#---------------------------------3-5~~-3-5~~-------3-5-3-5-3-----|
C#---------------------------------------------3-5~~-3-5-3-5-3-0~~-|
Pm                                                   . . . . .

Guitar 3
D#-13~~~---------------13--12--13--15~~~-13~~~-12--13~~~-12~~~-----|
A#-------15~~~-------------------------------------------------13--|
F#-------------14~~~~~---------------------------------------------|
C#-----------------------------------------------------------------|
G#-----------------------------------------------------------------|
C#-----------------------------------------------------------------|

Guitar 4
D#-17~~~---------------17--15--17--18~~~-17~~~-15--17~~~-15~~~-13--|
A#-------18~~~-----------------------------------------------------|
F#-------------19~~~~~---------------------------------------------|
C#-----------------------------------------------------------------|
G#-----------------------------------------------------------------|
C#-----------------------------------------------------------------|

===================================================================
===================================================================


Verse 1

Guitar 1
D#-----------------------------------------------------------------|
A#-----------------------------------------------------------------|
F#-----------------------------------------------------------------|
C#-0-0-0-0-0-0-0-0-0-0-0-0-0-0-0-0-3-3-3-3-3-3-3-3-3-3-3-3---------|
G#-0-0-0-0-0-0-0-0-0-0-0-0-0-0-0-0-3-3-3-3-3-3-3-3-3-3-3-3---------|
C#-0-0-0-0-0-0-0-0-0-0-0-0-0-0-0-0-3-3-3-3-3-3-3-3-3-3-3-3-5-3-2-3-|
Pm . . . . . . . . . . . . . . . . . . . . . . . . . . . .

Guitar 3
D#-----------------------------------------------------------------|
A#-----------------------------------------------------------------|
F#-14~~~~~~~~~~~~~~~~~~~~~~~~~~~~~~~~~~~~~~~~~~~~~~~~~~~~~~~~~~~~~-
C#-----------------------------------------------------------------|
G#-----------------------------------------------------------------|
C#-----------------------------------------------------------------|

Guitar 4
D#-----------------------------------------------------------------
A#-15~~~~~~~~~~~~~~~~~~~~~~~~~~~~~~~~~~~~~~~~~~~~~~~~~~~~~~~~~~~~~-
F#-----------------------------------------------------------------|
C#-----------------------------------------------------------------|
G#-----------------------------------------------------------------|
C#-----------------------------------------------------------------|

===================================================================

Guitar 1
D#-----------------------------------------------------------------|
A#-----------------------------------------------------------------|
F#-3-3-3-3-3-3-3-3-3-3-3-3-----------------------------------------|
C#-3-3-3-3-3-3-3-3-3-3-3-3---------5-5-5-5-5-5-5-5-----------------|
G#-1-1-1-1-1-1-1-1-1-1-1-1-5-3-1-0-5-5-5-5-5-5-5-5-0-1-0-----------|
C#---------------------------------5-5-5-5-5-5-5-5-------5-3-5-3-2-|
Pm . . . . . . . . . . . .         . . . . . . . .

===================================================================

Guitar 1
D#-----------------------------------------------------------------|
A#-----------------------------------------------------------------|
F#-----------------------------------------------------------------|
C#-0-0-0-0-0-0-0-0-0-0-0-0-0-0-0-0-3-3-3-3-3-3-3-3-3-3-3-3---------|
G#-0-0-0-0-0-0-0-0-0-0-0-0-0-0-0-0-3-3-3-3-3-3-3-3-3-3-3-3---------|
C#-0-0-0-0-0-0-0-0-0-0-0-0-0-0-0-0-3-3-3-3-3-3-3-3-3-3-3-3-5-3-2-3-|
Pm . . . . . . . . . . . . . . . . . . . . . . . . . . . .

Guitar 3
D#-----------------------------------------------------------------|
A#-----------------------------------------------------------------|
F#-----------------------------------------------------------------|
C#-12~~~~~~~~~~~~~~~~~~~~~~~~~~~~~~~~~~~~~~~~~~~~~-12~~~~~---------|
G#---------------------------------------------------------12~~~~~-|
C#-----------------------------------------------------------------|

Guitar 4
D#-----------------------------------------------------------------|
A#-----------------------------------------------------------------|
F#-14~~~~~~~~~~~~~~~~~~~~~~~~~~~~~~~~~~~~~~~~~~~~~-10~~~~~---------|
C#---------------------------------------------------------10~~~~~-|
G#-----------------------------------------------------------------|
C#-----------------------------------------------------------------|

===================================================================

Guitar 1
D#-----------------------------------------------------------------|
A#-----------------------------------------------------------------|
F#-3-3-3-3-3-3-3-3-3-3-3-3-----------------------------------------|
C#-3-3-3-3-3-3-3-3-3-3-3-3---------5-5-5-5-5-5-5-5-----------------|
G#-1-1-1-1-1-1-1-1-1-1-1-1-5-3-1-0-5-5-5-5-5-5-5-5-0-1-0-----------|
C#---------------------------------5-5-5-5-5-5-5-5-------5-3-5-3-2-|
Pm . . . . . . . . . . . .         . . . . . . . .

Guitar 3
D#-----------------------------------------------------------------|
A#-----------------------------------------------------------------|
F#-----------------------------------------------------------------|
C#-----------------------------------------------------------------|
G#-13~~~~~~~~~~~~~~~~~~~~~-12~~~~~~-10~~~~~~~~~~~~-13~~~~~~~~~~~~~-|
C#-----------------------------------------------------------------|

Guitar 4
D#-----------------------------------------------------------------|
A#-----------------------------------------------------------------|
F#-----------------------------------------------------------------|
C#-12~~~~~~~~~~~~~~~~~~~~~-10~~~~~~----------------10~~~~~~~~~~~~~-|
G#----------------------------------13~~~~~~~~~~~~-----------------|
C#-----------------------------------------------------------------|

===================================================================
===================================================================


Pre Chorus 2

Guitar 1
D#-----------------------------------------------------------------|
A#-----------------------------------------------------------------|
F#-----------------------------------------------------------------|
C#---------------------------------------------------------12\~~~~-|
G#-5-~-~-~-~-~-~-~-~-~-~-~-~-~-~-~-~-~-~-~-~-~-~-~-~-~-~-~-12\~~~~-|
C#---------------------------------------------------------12\~~~~-|

Guitar 3
D#-----------------------------------------------------------------|
A#-----------------------------------------------------------------|
F#-----------------------------------------------------------------|
C#-12~~~~~~~~~~~~~~~~~~~~~~~~~~~~~~~~~~~~~~~~~~~~~~~~~~~~~-12\~~~~-|
G#---------------------------------------------------------12\~~~~-|
C#---------------------------------------------------------12\~~~~-|

Guitar 4
D#-----------------------------------------------------------------|
A#-----------------------------------------------------------------|
F#-10~~~~~~~~~~~~~~~~~~~~~~~~~~~~~~~~~~~~~~~~~~~~~~~~~~~~~---------|
C#-----------------------------------------------------------------|
G#-----------------------------------------------------------------|
C#-----------------------------------------------------------------|

===================================================================
===================================================================


Chorus 2

Guitar 1
D#-----------------------------------------------------------------|
A#-----------------------------------------------------------------|
F#-5-7~~~~---------4-5~~~~-----------------------------------------|
C#-5-7~~~~-0~~~~~~-4-5~~~~-0~~~~~~-3-3-3-3-3-3-3-3-3-5-5-5-5-5-5-5-|
G#-3-5~~~~-0~~~~~~-2-3~~~~-0~~~~~~-3-3-3-3-3-3-3-3-3-5-5-5-5-5-5-5-|
C#---------0~~~~~~---------0~~~~~~-3-3-3-3-3-3-3-3-3-5-5-5-5-5-5-5-|

Guitar 3
D#-----------------------------------------------------------------|
A#-----------------------------------------------------------------|
F#-5-7~~~~-7~~~~~~-7-9~~~~-9~~~~~~-9-10-10-10-10-10-12-12-12-12-12-|
C#-x-x-----x-------x-x-----x-------x-x--x--x--x--x--x--x--x--x--x--|
G#-3-5~~~~-5~~~~~~-5-7~~~~-7~~~~~~-7-8--8--8--8--8--10-10-10-10-10-|
C#-----------------------------------------------------------------|

===================================================================

Guitar 1
D#-----------------------------------------------------------------|
A#-----------------------------------------------------------------|
F#-5-7~~~~---------4-5~~~~-----------------------------------------|
C#-5-7~~~~-0~~~~~~-4-5~~~~-0~~~~~~-3-3-3-3-3-3-3-3-----------------|
G#-3-5~~~~-0~~~~~~-2-3~~~~-0~~~~~~-3-3-3-3-3-3-3-3-----------------|
C#---------0~~~~~~---------0~~~~~~-3-3-3-3-3-3-3-3-3-2-0-2-3-2-0-2-|

Guitar 3
D#-----------------------------------------------------------------|
A#-----------------------------------------------------------------|
F#-5-7~~~~-7~~~~~~-7-9~~~~-9~~~~~~-9-10-10-10-10-10----------------|
C#-x-x-----x-------x-x-----x-------x-x--x--x--x--x-3-2-0-2-3-2-0-2-|
G#-3-5~~~~-5~~~~~~-5-7~~~~-7~~~~~~-7-8--8--8--8--8-----------------|
C#-----------------------------------------------------------------|

===================================================================

Guitar 1
D#-----------------------------------------------------------------|
A#-----------------------------------------------------------------|
F#-5-7~~~~---------4-5~~~~-----------------------------------------|
C#-5-7~~~~-0~~~~~~-4-5~~~~-0~~~~~~-3-3-3-3-3-3-3-3-3-5-5-5-5-5-5-5-|
G#-3-5~~~~-0~~~~~~-2-3~~~~-0~~~~~~-3-3-3-3-3-3-3-3-3-5-5-5-5-5-5-5-|
C#---------0~~~~~~---------0~~~~~~-3-3-3-3-3-3-3-3-3-5-5-5-5-5-5-5-|

Guitar 3
D#-----------------------------------------------------------------|
A#-----------------------------------------------------------------|
F#-5-7~~~~-7~~~~~~-7-9~~~~-9~~~~~~-9-10-10-10-10-10-12-12-12-12-12-|
C#-x-x-----x-------x-x-----x-------x-x--x--x--x--x--x--x--x--x--x--|
G#-3-5~~~~-5~~~~~~-5-7~~~~-7~~~~~~-7-8--8--8--8--8--10-10-10-10-10-|
C#-----------------------------------------------------------------|

===================================================================

Guitar 1
D#-----------------------------------------------------------------|
A#-----------------------------------------------------------------|
F#-----------------------------------------------------------------|
C#-8---8---8---8---8---8---8---8---7---7---7---7-------------------|
G#-8---8---8---8---8---8---8---8---7---7---7---7---0---------------|
C#-8---8---8---8---8---8---8---8---7---7---7---7-----5-2-3-5-3-2-3-|

Guitar 3
D#-------------------------------------------------|
A#-------------------------------------------------|
F#-7---7---7---7---7---7---7---7---6---6---6---6---|
C#-x---x---x---x---x---x---x---x---x---x---x---x---|
G#-5---5---5---5---5---5---5---5---4---4---4---4---|
C#-------------------------------------------------|

Guitar 3 continued
D#-----------------------------|
A#----------------------6-8-10-|
F#---------------7-9-10--------|
C#--------7-8-10---------------|
G#-7-8-10----------------------|
C#-----------------------------|

===================================================================
===================================================================


Interlude

Guitar 1
D#-----------------------------------------------------------------|
A#-----------------------------------------------------------------|
F#-----------------------------------------------------------------|
C#-----------------------------------------------------------------|
G#---------------------------------------------------------5~~~~~~-|
C#-0-0-0-3-3-3-5-5-5-6-6-6-5-5-3-3-0-0-0-3-3-3-5-5-5-6-6-6---------|

Guitar 3
D#-----------------------------------------------------------------|
A#-----------------------------------------------------------------|
F#-----------------------------------------------------------------|
C#-----------------------------------------------------------------|
G#---------------------------------------------------------8~~~~~~-|
C#-0-0-0-3-3-3-5-5-5-6-6-6-5-5-3-3-0-0-0-3-3-3-5-5-5-6-6-6---------|

===================================================================

Guitar 1
D#-----------------------------------------------------------------|
A#-----------------------------------------------------------------|
F#-----------------------------------------------------------------|
C#-----------------------------------------------------------------|
G#---------------------------------5-----------5-----------5-------|
C#-0-0-0-3-3-3-5-5-5-6-6-6-5-5-3-3---8-7-5-7-5---8-7-5-7-5---8-7-5-|
Pm                                   . . . . .   . . . . .   . . .

Guitar 3
D#-------------------------------------------------------------------------|
A#-------------------------------------------------------------------------|
F#-------------------------------------------------------------------------|
C#-------------------------------------------------------------------------|
G#---------------------------------8--------------8--------------8---------|
C#-0-0-0-3-3-3-5-5-5-6-6-6-5-5-3-3---12-10-8-10-8---12-10-8-10-8---12-10-8-|
Pm                                   .  .  . .  .   .  .  . .  .   .  .  .

===================================================================

Guitar 1
D#-----------------------------------------------------------------|
A#-----------------------------------------------------------------|
F#-----------------------------------------------------------------|
C#-----------------------------------------------------------------|
G#---------------------------------------------------------5~~~~~~-|
C#-0-0-0-3-3-3-5-5-5-6-6-6-5-5-3-3-0-0-0-3-3-3-5-5-5-6-6-6---------|

Guitar 3
D#-----------------------------------------------------------------|
A#-----------------------------------------------------------------|
F#-----------------------------------------------------------------|
C#-----------------------------------------------------------------|
G#---------------------------------------------------------8~~~~~~-|
C#-0-0-0-3-3-3-5-5-5-6-6-6-5-5-3-3-0-0-0-3-3-3-5-5-5-6-6-6---------|

===================================================================

Guitar 1 & 3
D#-----------------------------------------------------------------|
A#-----------------------------------------------------------------|
F#-----------------------------------------------------------------|
C#---------------------------------0-0-----0---0-0------0-0-12\~~~-|
G#---------------------------------0-0-----0---0-0------0-0-12\~~~-|
C#-0-0-0-3-3-3-5-5-5-6-6-6-5-5-3-3-0-0-----0---0-0------0-0-12\~~~-|
Pm                                                      . .

===================================================================
===================================================================


Guitar Solo

Guitar 1
D#-----------------------------------------------------------------|
A#-----------------------------------------------------------------|
F#-----------------------------------------------------------------|
C#-0~~~~~~~~~~~~~~~~~~~~~~~~~~~~~~~~~~~~~~~~~~~~~~~~~~~~~~~~~~~~~~-
G#-0~~~~~~~~~~~~~~~~~~~~~~~~~~~~~~~~~~~~~~~~~~~~~~~~~~~~~~~~~~~~~~-
C#-0~~~~~~~~~~~~~~~~~~~~~~~~~~~~~~~~~~~~~~~~~~~~~~~~~~~~~~~~~~~~~~-

Guitar 3
D#-----------------------------------------------------------------|
A#-----------------------------------------------------------------|
F#-----------------------------------------------------------------|
C#---------------------------------5b~~~~~~~~~~~~~~~~~~~~~-6---5---|
G#-5~~~~~~~~~~~~~~~~~~~~~~~~~~~~~~---------------------------------|
C#-----------------------------------------------------------------|

===================================================================

Guitar 1
D#-----------------------------------------------------------------|
A#-----------------------------------------------------------------|
F#-----------------------------------------------------------------|
C#-3~~~~~~~~~~~~~~~~~~~~~~~~~~~~~~~~~~~~~~~~~~~~~~~~~~~~~~~~~~~~~~-
G#-3~~~~~~~~~~~~~~~~~~~~~~~~~~~~~~~~~~~~~~~~~~~~~~~~~~~~~~~~~~~~~~-
C#-3~~~~~~~~~~~~~~~~~~~~~~~~~~~~~~~~~~~~~~~~~~~~~~~~~~~~~~~~~~~~~~-

Guitar 3
D#-----------------------------------------------------------------|
A#---------------------------------10*b~~~~~~~~~~~~~~~~~~~~~~~~~~~-|
F#-----------------------------------------------------------------|
C#-----------------------------------------------------------------|
G#-5~~~~~~~~~~~~~~~~~~~~~~~~~~~~~~---------------------------------|
C#-----------------------------------------------------------------|

===================================================================

Guitar 1
D#-----------------------------------------------------------------|
A#-----------------------------------------------------------------|
F#-----------------------------------------------------------------|
C#-0~~~~~~~~~~~~~~~~~~~~~~~~~~~~~~~~~~~~~~~~~~~~~~~~~~~~~~~~~~~~~~-
G#-0~~~~~~~~~~~~~~~~~~~~~~~~~~~~~~~~~~~~~~~~~~~~~~~~~~~~~~~~~~~~~~-
C#-0~~~~~~~~~~~~~~~~~~~~~~~~~~~~~~~~~~~~~~~~~~~~~~~~~~~~~~~~~~~~~~-

Guitar 3
D#---------------------------------15b~~~~~~~~~~~~~~~~~~~~-16--15--|
A#-15~~~~~~~~~~~~~~~~~~~~~~~~~~~~~---------------------------------|
F#-----------------------------------------------------------------|
C#-----------------------------------------------------------------|
G#-----------------------------------------------------------------|
C#-----------------------------------------------------------------|

===================================================================

Guitar 1
D#-----------------------------------------------------------------|
A#-----------------------------------------------------------------|
F#-----------------------------------------------------------------|
C#-8~~~~~~~~~~~~~~~~~~~~~~~~~~~~~~-7~~~~~~~~~~~~~~~~~~~~~~~~~~~~~~-
G#-8~~~~~~~~~~~~~~~~~~~~~~~~~~~~~~-7~~~~~~~~~~~~~~~~~~~~~~~~~~~~~~-
C#-8~~~~~~~~~~~~~~~~~~~~~~~~~~~~~~-7~~~~~~~~~~~~~~~~~~~~~~~~~~~~~~-

Guitar 3
D#---------------------------------20b~~~~~~~~~~~~~~~~~~~~~~~~~~~~-|
A#-15~~~~~~~~~~~~~~~~~~~~~~~~~~~~~---------------------------------|
F#-----------------------------------------------------------------|
C#-----------------------------------------------------------------|
G#-----------------------------------------------------------------|
C#-----------------------------------------------------------------|

===================================================================

Guitar 1
D#-----------------------------------------------------------------|
A#-----------------------------------------------------------------|
F#-----------------------------------------------------------------|
C#-0~~~~~~~~~~~~~~~~~~~~~~~~~~~~~~~~~~~~~~~~~~~~~~~~~~~~~~~~~~~~~~-
G#-0~~~~~~~~~~~~~~~~~~~~~~~~~~~~~~~~~~~~~~~~~~~~~~~~~~~~~~~~~~~~~~-
C#-0~~~~~~~~~~~~~~~~~~~~~~~~~~~~~~~~~~~~~~~~~~~~~~~~~~~~~~~~~~~~~~-

Guitar 3
D#-------------------------------------------------------------------------
A#t18p17p15p13h15h17t18p17p15p13h15h17t18p17p15p13h15h17t18p17p15p13h15h17-
F#-------------------------------------------------------------------------|
C#-------------------------------------------------------------------------|
G#-------------------------------------------------------------------------|
C#-------------------------------------------------------------------------|

===================================================================

Guitar 1
D#-----------------------------------------------------------------|
A#-----------------------------------------------------------------|
F#-----------------------------------------------------------------|
C#-3~~~~~~~~~~~~~~~~~~~~~~~~~~~~~~~~~~~~~~~~~~~~~~~~~~~~~~~~~~~~~~-
G#-3~~~~~~~~~~~~~~~~~~~~~~~~~~~~~~~~~~~~~~~~~~~~~~~~~~~~~~~~~~~~~~-
C#-3~~~~~~~~~~~~~~~~~~~~~~~~~~~~~~~~~~~~~~~~~~~~~~~~~~~~~~~~~~~~~~-

Guitar 3
D#---------------------------------13b~~~~~~~~~~~~~~~~~~~~~~~~~~~~-|
A#---------15~~~~~-------------------------------------------------|
F#-13b~~~~---------12~~~~~-14~~~~~---------------------------------|
C#-----------------------------------------------------------------|
G#-----------------------------------------------------------------|
C#-----------------------------------------------------------------|

===================================================================

Guitar 1
D#-----------------------------------------------------------------|
A#-----------------------------------------------------------------|
F#-----------------------------------------------------------------|
C#-0~~~~~~~~~~~~~~~~~~~~~~~~~~~~~~~~~~~~~~~~~~~~~~~~~~~~~~~~~~~~~~-
G#-0~~~~~~~~~~~~~~~~~~~~~~~~~~~~~~~~~~~~~~~~~~~~~~~~~~~~~~~~~~~~~~-
C#-0~~~~~~~~~~~~~~~~~~~~~~~~~~~~~~~~~~~~~~~~~~~~~~~~~~~~~~~~~~~~~~-

Guitar 3
D#-15--13-15-13-10--------------------------------------------------|
A#-----------------13--10----------15-13-10-------------------------|
F#-------------------------12--10-----------12-10-9-----------------|
C#--------------------------------------------------12-10-8---------|
G#----------------------------------------------------------12-10-8-|
C#------------------------------------------------------------------|

===================================================================

Guitar 1
D#-----------------------------------------------------------------|
A#-----------------------------------------------------------------|
F#-----------------------------------------------------------------|
C#-8~~~~~~~~~~~~~~~~~~~~~~~~~~~~~~-7~~~~~~~~~~~~~~~~~~~~~~~~~~~~~~-
G#-8~~~~~~~~~~~~~~~~~~~~~~~~~~~~~~-7~~~~~~~~~~~~~~~~~~~~~~~~~~~~~~-
C#-8~~~~~~~~~~~~~~~~~~~~~~~~~~~~~~-7~~~~~~~~~~~~~~~~~~~~~~~~~~~~~~-

Guitar 3
D#-----------------------------------------------------------------|
A#-10~~~~~~~~~~~~~~~~~~~~~~~~~~~~~-----------------6*~~~~~~~~~~~~~-|
F#-----------------------------------------7---10------------------|
C#---------------------------------7---10--------------------------|
G#-----------------------------------------------------------------|
C#-----------------------------------------------------------------|
Pm                                 .   .   .   .

===================================================================


Pre Chorus 3

Guitar 1
D#-----------------------------------------------------------------|
A#-----------------------------------------------------------------|
F#-----------------------------------------------------------------|
C#---------------------------------------------------------12\~~~~-|
G#-5-~-~-~-~-~-~-~-~-~-~-~-~-~-~-~-~-~-~-~-~-~-~-~-~-~-~-~-12\~~~~-|
C#---------------------------------------------------------12\~~~~-|

===================================================================
===================================================================


Chorus 3

Guitar 1
D#-----------------------------------------------------------------|
A#-----------------------------------------------------------------|
F#-5-7~~~~---------4-5~~~~-----------------------------------------|
C#-5-7~~~~-0~~~~~~-4-5~~~~-0~~~~~~-3-3-3-3-3-3-3-3-3-5-5-5-5-5-5-5-|
G#-3-5~~~~-0~~~~~~-2-3~~~~-0~~~~~~-3-3-3-3-3-3-3-3-3-5-5-5-5-5-5-5-|
C#---------0~~~~~~---------0~~~~~~-3-3-3-3-3-3-3-3-3-5-5-5-5-5-5-5-|

Guitar 3
D#-----------------------------------------------------------------|
A#-----------------------------------------------------------------|
F#-5-7~~~~-7~~~~~~-7-9~~~~-9~~~~~~-9-10-10-10-10-10-12-12-12-12-12-|
C#-x-x-----x-------x-x-----x-------x-x--x--x--x--x--x--x--x--x--x--|
G#-3-5~~~~-5~~~~~~-5-7~~~~-7~~~~~~-7-8--8--8--8--8--10-10-10-10-10-|
C#-----------------------------------------------------------------|

===================================================================

Guitar 1
D#-----------------------------------------------------------------|
A#-----------------------------------------------------------------|
F#-5-7~~~~---------4-5~~~~-----------------------------------------|
C#-5-7~~~~-0~~~~~~-4-5~~~~-0~~~~~~-3-3-3-3-3-3-3-3-----------------|
G#-3-5~~~~-0~~~~~~-2-3~~~~-0~~~~~~-3-3-3-3-3-3-3-3-----------------|
C#---------0~~~~~~---------0~~~~~~-3-3-3-3-3-3-3-3-3-2-0-2-3-2-0-2-|

Guitar 3
D#-----------------------------------------------------------------|
A#-----------------------------------------------------------------|
F#-5-7~~~~-7~~~~~~-7-9~~~~-9~~~~~~-9-10-10-10-10-10----------------|
C#-x-x-----x-------x-x-----x-------x-x--x--x--x--x-3-2-0-2-3-2-0-2-|
G#-3-5~~~~-5~~~~~~-5-7~~~~-7~~~~~~-7-8--8--8--8--8-----------------|
C#-----------------------------------------------------------------|

===================================================================

Guitar 1
D#-----------------------------------------------------------------|
A#-----------------------------------------------------------------|
F#-5-7~~~~---------4-5~~~~-----------------------------------------|
C#-5-7~~~~-0~~~~~~-4-5~~~~-0~~~~~~-3-3-3-3-3-3-3-3-3-5-5-5-5-5-5-5-|
G#-3-5~~~~-0~~~~~~-2-3~~~~-0~~~~~~-3-3-3-3-3-3-3-3-3-5-5-5-5-5-5-5-|
C#---------0~~~~~~---------0~~~~~~-3-3-3-3-3-3-3-3-3-5-5-5-5-5-5-5-|

Guitar 3
D#-----------------------------------------------------------------|
A#-----------------------------------------------------------------|
F#-5-7~~~~-7~~~~~~-7-9~~~~-9~~~~~~-9-10-10-10-10-10-12-12-12-12-12-|
C#-x-x-----x-------x-x-----x-------x-x--x--x--x--x--x--x--x--x--x--|
G#-3-5~~~~-5~~~~~~-5-7~~~~-7~~~~~~-7-8--8--8--8--8--10-10-10-10-10-|
C#-----------------------------------------------------------------|

===================================================================

Guitar 1
D#-----------------------------------------------------------------|
A#-----------------------------------------------------------------|
F#-----------------------------------------------------------------|
C#-8---8---8---8---8---8---8---8---7---7---7---7-------------------|
G#-8---8---8---8---8---8---8---8---7---7---7---7---0---------------|
C#-8---8---8---8---8---8---8---8---7---7---7---7-----5-2-3-5-3-2-3-|

Guitar 3
D#-----------------------------------------------------------------|
A#-----------------------------------------------------------------|
F#-7---7---7---7---7---7---7---7---6---6---6---6---2-0-------------|
C#-x---x---x---x---x---x---x---x---x---x---x---x-------2-3-5-3-2-3-|
G#-5---5---5---5---5---5---5---5---4---4---4---4-------------------|
C#-----------------------------------------------------------------|

===================================================================

Guitar 1
D#-----------------------------------------------------------------|
A#-----------------------------------------------------------------|
F#-5-7~~~~---------4-5~~~~-----------------------------------------|
C#-5-7~~~~-0~~~~~~-4-5~~~~-0~~~~~~-3-3-3-3-3-3-3-3-3-5-5-5-5-5-5-5-|
G#-3-5~~~~-0~~~~~~-2-3~~~~-0~~~~~~-3-3-3-3-3-3-3-3-3-5-5-5-5-5-5-5-|
C#---------0~~~~~~---------0~~~~~~-3-3-3-3-3-3-3-3-3-5-5-5-5-5-5-5-|

Guitar 3
D#-----------------------------------------------------------------|
A#-----------------------------------------------------------------|
F#-5-7~~~~-7~~~~~~-7-9~~~~-9~~~~~~-9-10-10-10-10-10-12-12-12-12-12-|
C#-x-x-----x-------x-x-----x-------x-x--x--x--x--x--x--x--x--x--x--|
G#-3-5~~~~-5~~~~~~-5-7~~~~-7~~~~~~-7-8--8--8--8--8--10-10-10-10-10-|
C#-----------------------------------------------------------------|

Guitar 4
D#----------------13-12-10-12p8------------|
A#-15p10------------------------8--------8-|
F#-------10----10-----------------9----9---|
C#----------12----------------------10-----|
G#-----------------------------------------|
C#-----------------------------------------|

Guitar 4 continued
D#-13p8----8-13-17-15-13-15p12----------------12-|
A#------10---------------------13----------13----|
F#--------------------------------12----12-------|
C#-----------------------------------14----------|
G#-----------------------------------------------|
C#-----------------------------------------------|

===================================================================

Guitar 1
D#-----------------------------------------------------------------|
A#-----------------------------------------------------------------|
F#-5-7~~~~---------4-5~~~~-----------------------------------------|
C#-5-7~~~~-0~~~~~~-4-5~~~~-0~~~~~~-3-3-3-3-3-3-3-3-----------------|
G#-3-5~~~~-0~~~~~~-2-3~~~~-0~~~~~~-3-3-3-3-3-3-3-3-----------------|
C#---------0~~~~~~---------0~~~~~~-3-3-3-3-3-3-3-3-3-2-0-2-3-2-0-2-|

Guitar 3
D#-----------------------------------------------------------------|
A#-----------------------------------------------------------------|
F#-5-7~~~~-7~~~~~~-7-9~~~~-9~~~~~~-9-10-10-10-10-10----------------|
C#-x-x-----x-------x-x-----x-------x-x--x--x--x--x-3-2-0-2-3-2-0-2-|
G#-3-5~~~~-5~~~~~~-5-7~~~~-7~~~~~~-7-8--8--8--8--8-----------------|
C#-----------------------------------------------------------------|

Guitar 4
D#----------------13-12-10-12p8------------|
A#-15p10------------------------8--------8-|
F#-------10----10-----------------9----9---|
C#----------12----------------------10-----|
G#-----------------------------------------|
C#-----------------------------------------|

Guitar 4 continued
D#-13p8----8-13-17-15-13-12-13-15-12-------------|
A#------10---------------------------14-15-17-14-|
F#-----------------------------------------------|
C#-----------------------------------------------|
G#-----------------------------------------------|
C#-----------------------------------------------|

===================================================================

Guitar 1
D#-----------------------------------------------------------------|
A#-----------------------------------------------------------------|
F#-5-7~~~~---------4-5~~~~-----------------------------------------|
C#-5-7~~~~-0~~~~~~-4-5~~~~-0~~~~~~-3-3-3-3-3-3-3-3-3-5-5-5-5-5-5-5-|
G#-3-5~~~~-0~~~~~~-2-3~~~~-0~~~~~~-3-3-3-3-3-3-3-3-3-5-5-5-5-5-5-5-|
C#---------0~~~~~~---------0~~~~~~-3-3-3-3-3-3-3-3-3-5-5-5-5-5-5-5-|

Guitar 3
D#-----------------------------------------------------------------|
A#-----------------------------------------------------------------|
F#-5-7~~~~-7~~~~~~-7-9~~~~-9~~~~~~-9-10-10-10-10-10-12-12-12-12-12-|
C#-x-x-----x-------x-x-----x-------x-x--x--x--x--x--x--x--x--x--x--|
G#-3-5~~~~-5~~~~~~-5-7~~~~-7~~~~~~-7-8--8--8--8--8--10-10-10-10-10-|
C#-----------------------------------------------------------------|

Guitar 4
D#----------------13-12-10-12p8------------|
A#-15p10------------------------8--------8-|
F#-------10----10-----------------9----9---|
C#----------12----------------------10-----|
G#-----------------------------------------|
C#-----------------------------------------|

Guitar 4 continued
D#-13p8----8-13-17-15-13-15p12----------------12-|
A#------10---------------------13----------13----|
F#--------------------------------12----12-------|
C#-----------------------------------14----------|
G#-----------------------------------------------|
C#-----------------------------------------------|

===================================================================

Guitar 1
D#-----------------------------------------------------------------|
A#-----------------------------------------------------------------|
F#-----------------------------------------------------------------|
C#-8---8---8---8---8---8---8---8---7---7---7---7-------------------|
G#-8---8---8---8---8---8---8---8---7---7---7---7---0---------------|
C#-8---8---8---8---8---8---8---8---7---7---7---7-----5-2-3-5-3-2-3-|

Guitar 3
D#-----------------------------------------------------------------|
A#-----------------------------------------------------------------|
F#-7---7---7---7---7---7---7---7---6---6---6---6---2-0-------------|
C#-x---x---x---x---x---x---x---x---x---x---x---x-------2-3-5-3-2-3-|
G#-5---5---5---5---5---5---5---5---4---4---4---4-------------------|
C#-----------------------------------------------------------------|

Guitar 4
D#-13p10----------------------------10-12-13-12-10-|
A#-------11----------------------11----------------|
F#----------10----------------10-------------------|
C#-------------12----------12----------------------|
G#----------------13-12-13-------------------------|
C#-------------------------------------------------|

Guitar 4 continued
D#-12p9-----------------------------9-10-12-13-|
A#------10--------------------10-12------------|
F#---------9----------------9------------------|
C#-----------11----------11--------------------|
G#--------------12-11-12-----------------------|
C#---------------------------------------------|

===================================================================
===================================================================


Outro

===================================================================
===================================================================
===================================================================


Tab Legend
h - hammer-on
p - pull-off
/ - slide up
\ - slide down
ps/- pickslide up
ps\- pickslide down
~ - let ring
pm.- palm mute
b - bend
r - return from bend
* - harmonic
x - dead note
^ - Whammy bar
^\ - Whammy bar (hold down)

That's all of it! I hope this tab helped you, and if you've got any problems, be sure to
check out my cover for visuals. Thanks, oh and one last thing... ROCK OUT!!!!
Добавлено: 18.06.2013
Другие материалы по этой песне:

Страница создана 18.06.2013
http://primanota.ru/black-veil-brides/unbroken-chords.htm
Привет, Гость.
Предлагаем пройти революционный курс по гитаре.
Подарок от PrimaNota.Ru, забирай!