PrimaNota.ru - самый крупный в мире бесплатный архив песенных текстов, аккордов, табулатур и нот


Black Veil Brides - Last Rites - таба, бас-таба, видео

Регистрация Запомнить меня
Войти через:  Facebook Google Twitter Vk Yandex Mail.ru

Black Veil Brides - Last Rites - таба, бас-таба, видео

Печатать
Просмотров: 378
-------------------------------------------------------------------------------
                            Last Rites - Black Veil Brides
-------------------------------------------------------------------------------
Tabbed by: Anasky
E-mail: Mads@mik86.dk

Tuning: Drop C (C G C F A D)

Hello again! I decided to tab Black Veil Brides' awesome song from their self titled new
album. I have been having some troubles trying to learn the solo, so I have decided not to
tab it, but if you are interested in learning the solo and play along with Jake - I 
recommend going to Youtube and see his lesson (https://www.youtube.com/watch?v=kDObZErhgeM)

Intro part 1:
D|---------------------------------------------------------------------------|
A|--------------7------------------------------------------------------------|
F|-/8-8-6---6-8---8-6-----/8-8-6-5-6-5------------------------11-13----------|
C|--------9-----------9--------------6--------------11-13-14-----------------|
G|-----------------------------------------11-13-14--------------------------|
C|---------------------------------------------------------------------------|

Intro part 2:
D|--------------------14-------------------------------------------------------------|
A|-/16-16-14----14-16----16-14--------/16-16-14-12-14-12h14p12--11h12p11-------------|
F|-----------16----------------16----------------------------------------13-11-12-13-|
C|-----------------------------------------------------------------------------------|
G|-----------------------------------------------------------------------------------|
C|-----------------------------------------------------------------------------------|

Ending part 2 / Sweep part:
D|---------------11-16-------------------------------------------------------|
A|-------------12------------------------------------------------------------|
F|-----------12--------------------------------------------------------------|
C|------11h13----------------------------------------------------------------|
G|-11h15---------------------------------------------------------------------|
C|---------------------------------------------------------------------------|

Verse:
D|---------------------------------------------------------------------------|
A|---------------------------------------------------------------------------|
F|---------------------------------------------------------------------------|
C|(6-6-6-6-6-6)-----(6-6-6-6-6-6)-4-4-6--(6-6-6-6-6-6)------4--7-------------|
G|-6-6-6-6-6-6-4h5p4-6-6-6-6-6-6--4-2-6---6-6-6-6-6-6-4h5p4-4--7-------------|
C|-6-6-6-6-6-6-------6-6-6-6-6-6--4-2-6---6-6-6-6-6-6-------4--7-------------| x4
   x x x x x x       x x x x x x          x x x x x x

Pre-chorus:
D|---------------------------------------------------------------------------|
A|---------------------------------------------------------------------------|
F|---------------------------------------------------------------------------|
C|-------4---3b--------4---3b(hold)------------------------------------------|
G|-2-5-2---2------2-5-2--2---------------------------------------------------|
C|---------------------------------------------------------------------------|

Chorus:
D|---------------------------------------------------------------------------|
A|---------------------------------------------------------------------------|
F|---------------------------------------------------------------------------|
C|-6-6-6-6--2-2-2-2--4-4-4-4-------------------------------------------------|
G|-6-6-6-6--2-2-2-2--4-4-4-4---6--5--4\2-------------------------------------|
C|-6-6-6-6--2-2-2-2--4-4-4-4--6--6--6----------------------------------------| x2 (4 
times in second chorus)

Breakdown:
D|---------------------------------------------------------------------------|
A|---------------------------------------------------------------------------|
F|---------------------------------------------------------------------------|
C|(6-6)------(6-6-6-6)---(6-6)-----(6-6-6-6)---------------------------------|
G|-6-6--------6-6-6-6-----6-6-------6-6-6-6----------------------------------|
C|-6-6--------6-6-6-6-----6-6-------6-6-6-6----------------------------------|
  "Sanctus"  "Dominus" "I am left alone"

************************************

| /   slide up
| \   slide down
| h   hammer-on
| p   pull-off
| x   Mute note
| b   Bend

************************************
Добавлено: 04.09.2015
Другие материалы по этой песне:
  • Аккорды и текст

Страница создана 08.10.2014
http://primanota.ru/black-veil-brides/last-rites-chords.htm
Привет, Гость.
Предлагаем пройти революционный курс по гитаре.
Подарок от PrimaNota.Ru, забирай!