PrimaNota.ru - самый крупный в мире бесплатный архив песенных текстов, аккордов, табулатур и нот


Black Veil Brides - Heavens Calling - текст песни, таба, видео

Регистрация Запомнить меня
Войти через:  Facebook Google Twitter Vk Yandex Mail.ru

Black Veil Brides - Heavens Calling - текст песни, таба, видео

Печатать
Просмотров: 524
2:01

D#----------------------------------------------------------|
A#----------------------------------------------------------|
F#----------------------------------------------------------|
C#--------3-2-3---------------------------------------------|
G#----------------------------------------------------------|
D#-0-0-0---------3-2-3---7-6-7--6-6-6-6-6-6-6-6-6-6-6-6-6-6-|

D#---------------------------------------------------------|
A#---------------------------------------------------------|
F#---------------------------------------------------------|
C#---------------------------------------3-2-3-------------|
G#---------------------------------------------------------|
D#-2-2-2-2-2-2-2-2-2-2-2-2-2-2-2---0-0-0---------3-2-3-----|

D#---------------------------------------------------------|
A#---------------------------------------------------------|
F#---------------------------------------------------------|
C#---------------------------------------------------------|
G#--------6--5-5-5-5-7-7-7-7-8-8-8-8--7--10-10-10-10-8-8-8-|
D#-7-6-7--6---------------------------7--------------------|


D#------------------------------------------------------------|
A#------------------------------------------------------------|
F#------------------------------------------------------------|
C#-------------------7-6-7------------------------------------|
G#-8-7-7-7-7---------------5-4-5--8-7-8-----------------------|
D#------------0-0-0-------------------------------------------|

D#-------------------------------------------------------------|
A#-------------------------------------------------------------|
F#-------------------------------------------------------------|
C#-------------------------------------------------------------|
G#-7-7-7-7-7-7-7-7-7-7-7-7-7-7-7-4-4-4-4-4-4-4-4-4-4-4-4-4-4-4-|
D#-------------------------------------------------------------|

D#---------------------------------------------------------|
A#---------------------------------------------------------|
F#---------------------------------------------------------|
C#--------3-2-3--------------------------5-5-5-5-7-7-7-7---|
G#----------------------------6--8-8-8-8-------------------|
D#-0-0-0--------3-2-3--7-6-7--6----------------------------|

D#---------------------------------------------------------|
A#---------------------------------------------------------|
F#---------------------------------------------------------|
C#----8-8-8-8-7-7-7-7-5-5-5-5-----3-2-3--------------------|
G#-7---------------------------0--------5-4-5--------------|
D#-7---------------------------0----------------7-6-7------|

D#---------------------------------------------------------|
A#---------------------------------------------------------|
F#---------------------------------------------------------|
C#-3---2---2-0-2------------------2--0---7-6-7-------------|
G#-----------------4-2-4-------------------------8-7-8-----|
D#-------------------------7-5-7---------------------------|

D#---------------------------------------------------------|
A#---------------------------------------------------------|
F#---------------------------------7-8---------------------|
C#-8-7-8-----------10-8-7----------------------------------|
G#--------10-9-10----------10-8-7--------------------------|
D#---------------------------------------------------------|

D#---------------------------------------------------------|
A#-7-h-8-p-7---several times-------------------------------|
F#---------------------------------------------------------|
C#---------------------------------------------------------|
G#---------------------------------------------------------|
D#---------------------------------------------------------|
             i think this part is palm muted until the bend
D#---------------------------------------------------------|
A#---------------------------------------------------------|
F#-7-7-6-6-9-9-7-7-10-10-9-9-12-12-10-10-------------------|
C#---------------------------------------------------------|
G#---------------------------------------------------------|
D#---------------------------------------------------------|

D#-------------------------------------13-13-13-13--12b----|
A#-11-11-10-10-13-13-11-11-15-15-13-13---------------------|
F#---------------------------------------------------------|
C#---------------------------------------------------------|
G#---------------------------------------------------------|
D#---------------------------------------------------------|
                        little weird tapping part
D#--------15-12---------12-10-11-10-11-10-11-10------------|
A#-----14--------------------------------------------------|
F#-/14----------12v----------------------------------------|
C#---------------------------------------------------------|
G#---------------------------------------------------------|
D#---------------------------------------------------------|
                           slide using both hands(no picking)
D#---------------------------------------------------------|
A#-12-10-11-10-11-10-11-10----/15--------------------------|
F#---------------------------------/17---------------------|
C#--------------------------------------/17----------------|
G#------------------------------------------/19------------|
D#---------------------------------------------------------|

D#---------------------------------------------------------|
A#-11-10-11-10-11-10-11-10-12-11-12-11-13-12-13-12---------|
F#---------------------------------------------------------|
C#---------------------------------------------------------|
G#---------------------------------------------------------|
D#---------------------------------------------------------|
                             hammer ons and pull offs
D#--------------------------15-16-15-16-15-16-15-16--------|
A#-14-13-14-13-15-14-16-15---------------------------------|
F#---------------------------------------------------------|
C#---------------------------------------------------------|
G#---------------------------------------------------------|
D#---------------------------------------------------------|

D#-17-17-17-17-17-17-17-17-17-17-17-17-17-17-17-17---------|
A#---------------------------------------------------------|
F#---------------------------------------------------------|
C#---------------------------------------------------------|
G#---------------------------------------------------------|
D#---------------------------------------------------------|

D#-18-17-15------------------------------------------------|
A#-----------18-17-15--------------------15----15----------|
F#--------------------15--------16----16----16-------------|
C#------------------------12-15----15----------------------|
G#---------------------------------------------------------|
D#---------------------------------------------------------|

D#---------------------------------------------------------|
A#-17-15-14-15-17v-----------------------------------------|
F#---------------------------------------------------------|
C#---------------------------------------------------------|
G#---------------------------------------------------------|
D#---------------------------------------------------------|

D#-13-12-10-12-10----10------------------------------------|
A#----------------13----13-11-13-11-10--11-10----10--------|
F#--------------------------------------------12----12-10--|
C#---------------------------------------------------------|
G#---------------------------------------------------------|
D#---------------------------------------------------------|

D#-----------------------------9---------------------------|
A#--------------------------11---11------------------------|
F#-12-10----10-----------12---------12---------------------|
C#-------12----12-10--11---------------11------------------|
G#---------------------------------------------------------|
D#---------------------------------------------------------|

D#----------12---------------------15----------------------|
A#-------14----14---------------17----17-------------------|
F#----15----------15---------18----------18----------------|
C#-14----------------14---17----------------17-------------|
G#---------------------------------------------------------|
D#---------------------------------------------------------|

D#----------18------------20 b full----------------------------|
A#-------20----20----------------------------------------------|
F#----21----------21-------------------------------------------|
C#-20----------------20----------------------------------------|
G#-------------------------------------------------------------|
D#-------------------------------------------------------------|

all credit goes to patrick, also i did some little fixes
Добавлено: 10.03.2012
Другие материалы по этой песне:

Страница создана 10.03.2012
http://primanota.ru/black-veil-brides/heavens-calling-chords.htm
Привет, Гость.
Предлагаем пройти революционный курс по гитаре.
Подарок от PrimaNota.Ru, забирай!