PrimaNota.ru - самый крупный в мире бесплатный архив песенных текстов, аккордов, табулатур и нот


Black Uhuru - Party Next Door - таба, видео

Регистрация Запомнить меня
Войти через:  Facebook Google Twitter Vk Yandex Mail.ru

Black Uhuru - Party Next Door - таба, видео

Печатать
Просмотров: 130
----------------------------------------------------------------------------
                         Party Next Door – Black Uhuru
----------------------------------------------------------------------------

Tabbed by:TheRootsRadish
Email:justin.takayama@gmail.com

Tuning:Standard

Please Rate.  Enjoy.

Lead Guitar Riff 1:
e|-------------------------------------------|
B|-------------------------------------------|
G|-----------33-------55-------5/7-5---5-----|
D|--5--3--5-----55-35----55-35-------8---8-5-|
A|-------------------------------------------|
E|-------------------------------------------|
play 10 times.

Lead Guitar Bridge 1:
e|-------------------------------------------------------------------------|
B|-------------------------------------------------------------------------|
G|777777---5-----777777---5-----555555-------5555555/75-5--------33--------|
D|------5/7-75---------5/7-75---------585--------------8-8535535----55-35--|
A|------------8--------------8-----------85--------------------------------|
E|-------------------------------------------------------------------------|

e|----------------------|
B|----------------------|
G|55-------5/7-5---5----|
D|---55-35-------8---8-5|
A|----------------------|
E|----------------------|

Lead Guitar Riff 1:
e|-------------------------------------------|
B|-------------------------------------------|
G|-----------33-------55-------5/7-5---5-----|
D|--5--3--5-----55-35----55-35-------8---8-5-|
A|-------------------------------------------|
E|-------------------------------------------|
 play 3 times.

Lead Guitar Bridge 2:
e|--------------------------------------------------------|
B|--------------------------------------------------------|
G|--777777---5-----777777---5-----555555-------555555-----|
D|--------5/7-75---------5/7-75---------585----------585--|
A|--------------8--------------8-----------85-----------85|
E|--------------------------------------------------------|

e|---------------------------------------------------------|
B|---------------------------------------------------------|
G|--777777---5-----777777---5-----555555-------555555-5575-|
D|--------5/7-75---------5/7-75---------585---------------8|
A|--------------8--------------8-----------85--------------|
E|---------------------------------------------------------|

back to riff 1.  play 12 times.  In this section of the song
add some light delay about a third the way through this part.
Include delay for a couple or few bars then take it off.  At
the end of the section bring delay back for the transition.
Set delay so that it loops this part:

e|-----------|
B|-----------|
G|--5---5----|
D|----8---8--|
A|-----------|
E|-----------|

It only delays a couple times,
then go into Bridge 1.
play riff 1 three times then rest for 
thirty seven bars.

e|-----|
B|-----|
G|---5-|
D|--8-8|
A|-----|
E|-----|
With reverb.
Immediately into bridge 1.
e|-------------------------------------------------------------------------|
B|-------------------------------------------------------------------------|
G|777777---5-----777777---5-----555555-------5555555/75-5--------33--------|
D|------5/7-75---------5/7-75---------585--------------8-8535535----55-35--|
A|------------8--------------8-----------85--------------------------------|
E|-------------------------------------------------------------------------|

e|----------------------|
B|----------------------|
G|55-------5/7-5---5----|
D|---55-35-------8---8-5|
A|----------------------|
E|----------------------|

back into riff 1. play 12 times, at 6th repetition, add in delay.


| /  slide up
| \  slide down
| h  hammer-on
| p  pull-off
| ~  vibrato
| +  harmonic
| x  Mute note
============================================================================
Добавлено: 01.03.2012
Другие материалы по этой песне:
  • Аккорды и текст

Страница создана 01.03.2012
http://primanota.ru/black-uhuru/party-next-door-chords.htm
Привет, Гость.
Предлагаем пройти революционный курс по гитаре.
Подарок от PrimaNota.Ru, забирай!