PrimaNota.ru - самый крупный в мире бесплатный архив песенных текстов, аккордов, табулатур и нот


Black Tide - Warriors Of Time - текст песни, таба, бас-таба, видео

Регистрация Запомнить меня
Войти через:  Facebook Google Twitter Vk Yandex Mail.ru

Black Tide - Warriors Of Time - текст песни, таба, бас-таба, видео

Печатать
Просмотров: 1387
Авторы музыки: Gabriel Garcia
Авторы текста: Gabriel Garcia
Black Tide
Warriors of Time

Drop D

Kick Ass Intro
-----------------------------------------------------------------------|
-----------------------------------------------------------------------|
-----------/10--9--7--9------------------------------------------------|
------7-----------------------------/10--8--7--8p7---------------------|
--5----------------------------8--------------------8------------------|
---------------------------8----------------------------10-------------|

----------------------------------------------------------------------|
---------------------------------------/8--6--5--6p5------------------|
------------------------------------------------------5--0------------|
----------/5--3--2--3-------------5-----------------------------------|
------3-----------------------3---------------------------------------|
--3-------------------------------------------------------------------|

LIGHT FROM ABOVE--BUY IT!
Добавлено: 25.03.2012
Вам также может быть интересно:
Другие материалы по этой песне:

Страница создана 27.02.2012
http://primanota.ru/black-tide/warriors-of-time-chords.htm
Привет, Гость.
Предлагаем пройти революционный курс по гитаре.
Подарок от PrimaNota.Ru, забирай!