PrimaNota.ru - самый крупный в мире бесплатный архив песенных текстов, аккордов, табулатур и нот


Black Tide - Walking Dead Man - таба, видео

Регистрация Запомнить меня
Войти через:  Facebook Google Twitter Vk Yandex Mail.ru

Black Tide - Walking Dead Man - таба, видео

Печатать
Просмотров: 300
Black Tide - Walking Dead Man


Tuning:Drop D


Intro

E--------------------------------------------------------------|
B----18--18--18--18------------18-18-18-18-18-18-18-18---------|
G----------------------x3--------------------------------------|
D----15--15--15--15------------15-15-15-15-15-15-15-15---------|
A--------------------------------------------------------------|
D--------------------------------------------------------------|

E-----------------------------------------------|
B-----------------------------------------------|
G-----------------------------------------------|
D-----------------------------------------------|
A-----------------------------------------------|
D-000-000-000-0-000-000-0-000-000---------------| x8


Rhythm

E-----------------------------------------------------|
B-----------------------------------------------------|
G-----------------------------------------------------|
D----------------3--3-3-3-3----------------2--2-2-2-2-|
A-----------------------------------------------------|
D--12s0--0-0-000-------------12s0--0-0-000------------|

E---------------------------------------------------------|
B---------------------------------------------------------|
G---------------------------------------------------------|
D----------------3--3-3-3-3----------------2--3-2---2-----|
A-------------------------------------------------3---3-0-|
D--12s0--0-0-000-------------12s0--0-0-000----------------|


Lead
E-----------10---------10-------13b15-----------|
B--------10----13b15------13-10-----------------|
G--12b14----------------------------------------|
D-----------------------------------------------|
A-----------------------------------------------|
D-----------------------------------------------|

E-22-22p17s15--20p15s13--17p13s10--15p10s8--10p8-12-12b13b12(p10)----10-|
B-----------------------------------------------------------------13----|
G-----------------------------------------------------------------------|
D-----------------------------------------------------------------------|
A-----------------------------------------------------------------------|
D-----------------------------------------------------------------------|

E-------13h15s17p15-------15p13----------13------------------------|
B-13h15-------------18p15-------15p13-15----15p13-15p13------------|
G-------------------------------------------------------14s8-------|
D------------------------------------------------------------------|
A------------------------------------------------------------------|
D------------------------------------------------------------------|

E-----------------------------------------------|
B-----------------------------------------------|
G-----------------------------------------------|
D--3~--3-5-5b-3---------------------------------|
A---------------5-3~----------------------------|
D-----------------------------------------------|


Verse

E-----------------------------------------------------|
B-----------------------------------------------------|
G-----------------------------------------------------|
D----------------3--3-3-3-3----------------2--2-2-2-2-|
A-----------------------------------------------------|
D--12s0--0-0-000-------------12s0--0-0-000------------|

E---------------------------------------------------------|
B---------------------------------------------------------|
G---------------------------------------------------------|
D----------------3--3-3-3-3----------------2--3-2---2-----|
A-------------------------------------------------3---3-0-|
D--12s0--0-0-000-------------12s0--0-0-000----------------| x2


Pre-chorus

E-----------------------------------------------------|
B-----------------------------------------------------|
G-----------------------------------------------------|
D--0-0--0-0-3-3-3-3--2-----0-0--0-0-3-3--3-3--2---2-3-|
A--0-0------3-3--------3---0-0------3-3---------3-----|
D--0-0------3-3------------0-0------3-3---------------|

E-----------------------------------------------------------|
B-----------------------------------------------------------|
G-----------------------------------------------------------|
D--0-0--0-0-3-3-3-3--2-----5-5----------8-8-8-8-8s10-10-10--|
A--0-0------3-3--------3---5-5-5-5------8-8-8-8-8s10-10-10--|
D--0-0------3-3------------5-5----------8-8-8-8-8s10-10-10--|


Chorus

Rhythm
E------------------------------------------------|
B------------------------------------------------|
G----------3~------------------------------------|
D----0~----3~---0~----3-3-3-3---3-3-3-3----------|
A----0~----1~---0~----3-3-3-3---3-3-3-3----------|
D----0~---------0~----3-3-3-3---3-3-3-3--x-x-x-x-|

Lead
E------------------------------------------------|
B------------------------------------------------|
G---9s10---9s7--9s10-----------------------------|
D---------------------3-3-3-3---3-3-3-3----------|
A---7s8----7s5--7s8---3-3-3-3---3-3-3-3----------|
D---------------------3-3-3-3---3-3-3-3--x-x-x-x-|

Rhythm
E-----------------------------------------------|
B-----------------------------------------------|
G----------3~-----------------------------------|
D----0~----3~---0~----3-3-3-3---3-3-3-3---------|
A----0~----1~---0~----3-3-3-3---3-3-3-3---------|
D----0~---------0~----3-3-3-3---3-3-3-3---------|

Lead
E-----------------------------------------------|
B-----------------------------------------------|
G---9s10---9s7--9s10----------------------------|
D---------------------3-3-3-3---3-3-3-3---------|
A---7s8----7s5--7s8---3-3-3-3---3-3-3-3---------|
D---------------------3-3-3-3---3-3-3-3---------|

Both
E-----------------------------------------------|
B-----------------------------------------------|
G-----------------------------------------------|
D-------3---5s7s5--5~---------------------------|
A-----3------------5~---------------------------|
D---3--------------5~---------------------------|


Verse2

E-----------------------------------------------------|
B-----------------------------------------------------|
G-----------------------------------------------------|
D----------------3--3-3-3-3----------------2--2-2-2-2-|
A-----------------------------------------------------|
D--12s0--0-0-000-------------12s0--0-0-000------------|

E---------------------------------------------------------|
B---------------------------------------------------------|
G---------------------------------------------------------|
D----------------3--3-3-3-3----------------2--3-2---2-----|
A-------------------------------------------------3---3-0-|
D--12s0--0-0-000-------------12s0--0-0-000----------------| x2


Pre-chorus

E-----------------------------------------------------|
B-----------------------------------------------------|
G-----------------------------------------------------|
D--0-0--0-0-3-3-3-3--2-----0-0--0-0-3-3--3-3--2---2-3-|
A--0-0------3-3--------3---0-0------3-3---------3-----|
D--0-0------3-3------------0-0------3-3---------------|

E-----------------------------------------------------------|
B-----------------------------------------------------------|
G-----------------------------------------------------------|
D--0-0--0-0-3-3-3-3--2-----5-5----------8-8-8-8-8s10-10-10--|
A--0-0------3-3--------3---5-5-5-5------8-8-8-8-8s10-10-10--|
D--0-0------3-3------------5-5----------8-8-8-8-8s10-10-10--|

Lead
E------------15p13---------------------------------------------|
B---15-13----------15p13---------------------------------------|
G---------14--------------10-9---------------------------------|
D------------------------------10-12~--------------------------|
A--------------------------------------------------------------|
D--------------------------------------------------------------|



Chorus2

Rhythm
E------------------------------------------------|
B------------------------------------------------|
G----------3~------------------------------------|
D----0~----3~---0~----3-3-3-3---3-3-3-3----------|
A----0~----1~---0~----3-3-3-3---3-3-3-3----------|
D----0~---------0~----3-3-3-3---3-3-3-3--x-x-x-x-|

Lead
E------------------------------------------------|
B------------------------------------------------|
G---9s10---9s7--9s10-----------------------------|
D---------------------3-3-3-3---3-3-3-3----------|
A---7s8----7s5--7s8---3-3-3-3---3-3-3-3----------|
D---------------------3-3-3-3---3-3-3-3--x-x-x-x-|

Rhythm
E-----------------------------------------------|
B-----------------------------------------------|
G----------3~-----------------------------------|
D----0~----3~---0~----3-3-3-3---3-3-3-3---------|
A----0~----1~---0~----3-3-3-3---3-3-3-3---------|
D----0~---------0~----3-3-3-3---3-3-3-3---------|

Lead
E-----------------------------------------------|
B-----------------------------------------------|
G---9s10---9s7--9s10----------------------------|
D---------------------3-3-3-3---3-3-3-3---------|
A---7s8----7s5--7s8---3-3-3-3---3-3-3-3---------|
D---------------------3-3-3-3---3-3-3-3---------|

Both
E-----------------------------------------------|
B-----------------------------------------------|
G-----------------------------------------------|
D-------3---5s7s5------5---7s10p9---------------|
A-----3--------------5--------------------------|
D---3--------------5----------------------------|


Bridge
E---------------------------------------------------------------------------|
B---18---------------15---------------18------------------------------------|
G---14--x8-----------14---x8----------14---x8-------------------------------|
D---15---------------12---------------15---------------3-3-3-3--3-3-3-3-----|
A------------------------------------------------------3-3-3-3--3-3-3-3-----|
D------------------------------------------------------3-3-3-3--3-3-3-3-----|

E-----------------------------------------------|
B-----------------------------------------------|
G-----------------------------------------------|
D-----------------------------------------------|
A-----------------------------------------------|
D-000-000-000-0-000-000-0-000-000---------------|


Solo
Rhythm
E--------------------------------------------------|
B--------------------------------------------------|
G---------------------------------------9-9-9-9-9~-|
D--------------------------------------------------|
A--------3-5-3-------5-3--------3-5-3---7-7-7-7-7~-|
D--0-3h5-------0h3h5------0-3h5--------------------|

Lead
E----10-----------------------------------------|
B----13b15~~~15~~~~~15b13-10--------------------|
G----------------------------12--10-------------|
D-----------------------------------------------|
A-----------------------------------------------|
D-----------------------------------------------|

Rhythm
E-------------------------------------------------------|
B-------------------------------------------------------|
G---------------------------------------10-10-10-10-10~-|
D-------------------------------------------------------|
A--------3-5-3-------5-3--------3-5-3---8--8--8--8--8~--|
D--0-3h5-------0h3h5------0-3h5-------------------------|

Lead
E---10----13~~~--------13-15-15b17b15-13-----------|
B---13b15~~~~~~--13s15-------------------15~b18~~--|
G--------------------------------------------------|
D--------------------------------------------------|
A--------------------------------------------------|
D--------------------------------------------------|

Both
E--------------------------------------------------|
B--------------------------------------------------|
G---------------------------------------9-9-9-9-9~-|
D--------------------------------------------------|
A--------3-5-3-------5-3--------3-5-3---7-7-7-7-7~-|
D--0-3h5-------0h3h5------0-3h5--------------------|

E-------------------------------------------------------|
B-------------------------------------------------------|
G---------------------------------------10-10-10-10-10~-|
D-------------------------------------------------------|
A--------3-5-3-------5-3--------3-5-3---8--8--8--8--8~--|
D--0-3h5-------0h3h5------0-3h5-------------------------|

E--------------------------------------------------|
B--------------------------------------------------|
G---------------------------------------9-9-9-9-9~-|
D--------------------------------------------------|
A--------3-5-3-------5-3--------3-5-3---7-7-7-7-7~-|
D--0-3h5-------0h3h5------0-3h5--------------------|

E-------------------------------------------------------|
B-------------------------------------------------------|
G---------------------------------------10-10-10-10-9~--|
D-------------------------------------------------------|
A--------3-5-3-------5-3--------3-5-3---8--8--8--8--7~--|
D--0-3h5-------0h3h5------0-3h5-------------------------|

E------------------------------------------------|
B------------------------------------------------|
G--10-10-10-10-9---------------------------------|
D----------------------3-3-3-3--3-3-3-3----------|
A--8--8--8--8--7-------3-3-3-3--3-3-3-3----------|
D----------------------3-3-3-3--3-3-3-3----------|


Chorus 2 times

Ending

E--------------------------------------------------------------|
B----18--18--18--18--18--18--18--18----------------------------|
G--------------------------------------------------------------|
D----15--15--15--15--15--15--15--15----------------------------|
A--------------------------------------------------------------|
D--------------------------------------------------------------|

I hope it's correct!Enjoy!
Добавлено: 05.03.2012
Другие материалы по этой песне:

Страница создана 05.03.2012
http://primanota.ru/black-tide/walking-dead-man-chords.htm
Привет, Гость.
Предлагаем пройти революционный курс по гитаре.
Подарок от PrimaNota.Ru, забирай!