PrimaNota.ru - самый крупный в мире бесплатный архив песенных текстов, аккордов, табулатур и нот


Black Tide - Shout - текст песни, таба, бас-таба, видео

Регистрация Запомнить меня
Войти через:  Facebook Google Twitter Vk Yandex Mail.ru

Black Tide - Shout - текст песни, таба, бас-таба, видео

Печатать
Просмотров: 933
Уроки эстрадного вокала в Санкт-Петербурге
----------------------------------------------------------------------------
                             SHOUT - Black Tide
----------------------------------------------------------------------------
Tabbed by: Darkness_Maniac
Email: dote_darkness@yahoo.com

heyy guys, i watched some videos and listened to the song
and when i play it it sounds right. you'll have to listen
for the timings, but they're not too difficult. this is my
first tab so be nicee(:

Tuning: D Standard (Whole Step Down)

Intro                    End 1       End 2
D--------------------|------------|----------------|
A--------------------|------------|----------------|
F--------------------|------------|----------------|
C-2-----2--5--5\4-2--|------------|----------------|
G-0-----0--3--3\2-0--|-5------2---|-5------------2-|
D---3br--------------|-3--3-5-----|-3--------3-5---|

Verse 1                           End 1,2,3     End 4
D-------------------------------|------------|---------------|
A-------------------------------|------------|---------------|
F-------------------------------|------------|---------------|
C-22xx2-----2-2-222--5-5--5\4-2-|------------|---------------|
G-00xx0-----0-0-000--3-3--3\2-0-|-5-5------2-|-5-5-5-5-5-----|
D-------3br---------------------|-3-3--3-5---|-3-3-3-3-3-----|
            .   ...

Chorus                   End 1,3              End 2,4
D---------------------|--------------------|-----------------|
A---------------------|--------------------|-----------------|
F---------------------|--------------------|-----------------|
C-2-2-xx--------5-5-5-|--------------------|-----------------|
G-0-0-xx-5-5-xx-3-3-3-|-5br*-3-----3-------|--5br*-----------|
D--------3-3-xx-------|--------5-4---5-4-5-|-----------------|

Interlude w/ Verse and End 1
D----------------------------------------------------------|
A-5/10~--10-8-7-8p7-5--------------------------------------|
F---------------------9-7--5-5-5\4-----4-------------------|
C----------------------------------6-7---7~~---------------|
G----------------------------------------------------------|
D----------------------------------------------------------|

Verse 2                           End 1,2,3      End 4
D-------------------------------|------------|----------------|
A-------------------------------|------------|----------------|
F-------------------------------|------------|----------------|
C-22xx2-----2-2-222--5-5--5\4-2-|------------|----------------|
G-00xx0-----0-0-000--3-3--3\2-0-|-5-5------2-|--5-5-5-5-5-----|
D-------3br---------------------|-3-3--3-5---|--3-3-3-3-3-----|
            .   ...

Chorus                   End 1,3              End 2,4
D---------------------|--------------------|-----------------|
A---------------------|--------------------|-----------------|
F---------------------|--------------------|-----------------|
C-2-2-xx--------5-5-5-|--------------------|-----------------|
G-0-0-xx-5-5-xx-3-3-3-|-5br*-3-----3-------|--5br*-----------|
D--------3-3-xx-------|--------5-4---5-4-5-|-----------------|

Solo A
D-12-8---------8--12-8---------8--12--12/17--17-13----------13--15--13-12-|
A------10---10---------10---10---------------------15----15---------------|
F---------9---------------9---------------------------14------------------|
C-------------------------------------------------------------------------|
G-------------------------------------------------------------------------|
D-------------------------------------------------------------------------|

D------------------|
A-15-13-12---------| (x2)
F----------14-13---|
C------------------|
G------------------|
D------------------|

Solo B
D---------------------------------------------------------------7-7-7-7--|
A-------------------------------------------------6-6-8-8-10-10----------|
F-----------------------------------------7-7-9-9------------------------|
C----------------------------5-5-7-7-9-9---------------------------------|
G---------------5-5-7-7-8-8----------------------------------------------|
D--5-5-7-7-8-8-----------------------------------------------------------|
   . . . . . .  . . . . . .  . . . . . .  . . . . . . . . .  .  . . . .

D----------------------------------------------------------------|
A----------------------------------------------------------------|
F--9-7h9p7----7--------7br-5h7p5-----4----4-5--4h5p4-----4/7~----|
C----------10---10-7--------------7~---7-------------7-----------|
G--------------------5~------------------------------------------|
D----------------------------------------------------------------|

D---------------------------------|
A---------------------------------|
F---7br--5-7~---7br--5h7p5--------|
C---------------------------7~----|
G---------------------------------|
D---------------------------------|


Lower Part
D----------------------------------------------------------------------|
A-10-13p10----10-15p10-13p10----10-15p10-13p10------10-15p10----13p10--|
F----------12----------------12----------------12------------12--------|
C----------------------------------------------------------------------|
G----------------------------------------------------------------------|
D----------------------------------------------------------------------|

D----------------------------------10br-8h10p8-8-----------------7----|
A-10-15p10-13p10----10-15p10-13p10----------------10-8-10--8-10-------|
F----------------12---------------------------------------------------|
C---------------------------------------------------------------------|
G---------------------------------------------------------------------|
D---------------------------------------------------------------------|


D-8-7h8p7-7---------7-8--7h8p7---10-7h8p7-----------------------------------|
A-----------10-8-10------------8----------8-10------------------------------|
F----------------------------------------------7-5---4----4-5-4h5p4--4-4/7~-|
C-------------------------------------------------------7-------------------|
G---------------------------------------------------------------------------|
D---------------------------------------------------------------------------|

Higher Part
D-17-20p17----17-22p17-20p17----17-22p17-20p17----17-22p17-20p17--------|
A----------20----------------20----------------20----------------20-----|
F-----------------------------------------------------------------------|
C-----------------------------------------------------------------------|
G-----------------------------------------------------------------------|
D-----------------------------------------------------------------------|

D-17-22p17-20p17----17-22p17-20p17--22br--20h22p20--20------------------19-|
A----------------20------------------------------------22-20-22--20-22-----|
F--------------------------------------------------------------------------|
C--------------------------------------------------------------------------|
G--------------------------------------------------------------------------|
D--------------------------------------------------------------------------|

D-20-19h20p19-19---------19-20-19h20p19----22--19h20p19---------|
A----------------22-20-22---------------20--------------20-22---|
F---------------------------------------------------------------|
C---------------------------------------------------------------|
G---------------------------------------------------------------|
D---------------------------------------------------------------|

D---------------------------------------------|
A---------------------------------------------|
F-19-17--16-------16-17-16h17p16------14/19~--|
C------------19------------------19-----------|
G---------------------------------------------|
D---------------------------------------------|

Solo B Rhythm
D-----------------------------------------------------------|
A-----------------------------------------------------------|
F-----------------------------------------------------------|
C-----------------------------------------3----3----3----3--|
G---5----5----5----5---3----3----3----3-1-1-11-1-11-1-11-1--|
D-3-3-33-3-33-3-33-3-1-1-11-1-11-1-11-1---------------------|

End 1,2,3               End 4
D--------------------|--------------------------------|
A--------------------|--------------------------------|
F--------------------|--------------------------------|
C---5----------------|-5-5-5-5-5-5--------------------|
G-3-3-3-1-3-1-3-1-1--|-3-3-3-3-3-3--------------------|
D-------------------3|--------------------------------|

Chorus                   End 1,3              End 2,4
D---------------------|--------------------|-----------------|
A---------------------|--------------------|-----------------|
F---------------------|--------------------|-----------------|
C-2-2-xx--------5-5-5-|--------------------|-----------------|
G-0-0-xx-5-5-xx-3-3-3-|-5br*-3-----3-------|--5br*-----------|
D--------3-3-xx-------|--------5-4---5-4-5-|-----------------|

Breakdown
D---------------------------------|
A---------------------------------|
F---------------------------------|
C-xx2-xx2-xx2-xx2-----------------|
G-xx0-xx0-xx0-xx0-xx5-xx5-xx5-xx5-|
D-----------------xx3-xx3-xx3-xx3-|

End 1                                              End 2
D-----------------------------------------------|----------------------|
A-----------------------------------------------|----------------------|
F-----------------------------------------------|----------------------|
C- xx5-xx5-xx5-xx5/x7-x7-x7---3---------3-------|-5-5-5-5-5-5-7------2-|
G- xx3-xx3-xx3-xx3/x5-x5-x5-----3-5-6-----3-5-6-|-3-3-3-3-3-3-5------0-|
D-----------------------------------------------|----------------15\---|

************************************

| /   slide up
| \   slide down
| h   hammer-on
| p   pull-off
| ~   vibrato
| +   harmonic
| x   Mute note
| b   Bend
| pb  Pre-bend
| br  Bend release
| pbr Pre-bend release
| brb Bend release bend

************************************
Добавлено: 01.04.2012
Другие материалы по этой песне:

Страница создана 12.03.2012
http://primanota.ru/black-tide/shout-chords.htm
Привет, Гость.
Предлагаем пройти революционный курс по гитаре.
Подарок от PrimaNota.Ru, забирай!