PrimaNota.ru - самый крупный в мире бесплатный архив песенных текстов, аккордов, табулатур и нот


Black Tide - Prowler - текст песни, таба, бас-таба, видео

Регистрация Запомнить меня
Войти через:  Facebook Google Twitter Vk Yandex Mail.ru

Black Tide - Prowler - текст песни, таба, бас-таба, видео

Печатать
Просмотров: 253
Авторы музыки: Steve Harris
Авторы текста: Steve Harris
                          Prowler- BLACK TIDE
Tabbed By: bfmvrock and neon_human
Tuning: Standard

INTRO
e-----------------------------\-- /
B-------------------------------- / \
G---999--9--9---9----99999----  \ /X4
D---999--9--9---9----99999---- -- /
A---777--7--7---7----77777------- /
E------00-00--00--00------------- /

play this over the top w/wah wah pedal
intro/verse
e---------------------------------------------------|
B---8-7-10-8-7-8--8-7-10-8-7-8--8-7-10-8-7-8--------|
G---------------------------------------------7tr9--|
D---------------------------------------------------|
A---------------------------------------------------|
E---------------------------------------------------|

e-------------------------------------------------------------------|
B---12-10-13-12-10-12--12-10-13-12-10-12--12-10-13-12-10-12---------|
G-----------------------------------------------------------11tr12--|
D-------------------------------------------------------------------|
A-------------------------------------------------------------------|
E-------------------------------------------------------------------|

Backing verse
e--------------------------------------------------------------------\- /
B---------------------------------------------------------------------- / \
G---999--9--9---9----99999--777----7----7----7--------9-7---7---------- /
D---999--9--9---9----99999--777----7----7----7-----2------9--9-8-7----- /  x2
A---777--7--7---7----77777--555-55-5-55-5-55-5-55--2------------------- /
E------00-00--00--00-------------------------------0------------------- /

brigde
e-----------------------------------------------------------10-8-7-8--7--|
B------------------------------------------------------------------------|
G------)-101010----10----10----10---1010101010---------------------------|
D---5-7)-101010----10----10----10---1010101010--2--5-7--2----------------|
A---5-7)-8-8-8--88-8--88-8--88-8--8-8-8-8-8-8---2--5-7--2----------------|
E---3-5)----------------------------------------0--3-5--0----------------|
    /\ first time only

play that twice      heres the harmony
and then do this      for it

e--------------|     -------------------|
B---/8-7-------|     -----12/10---------|
G--------9-7-9-|x2   ----------12-11-12-|
D--------------|     -------------------|
A--------------|     -------------------|
E--------------|     -------------------|

then play this riff

e-----------------------|
B-----------------------|
G-----------------------|
D------9--7--10--9-7-9--|x2
A-----------------------|
E----00-00-00--0--------|

this is the breakdown bit

e-------------------------------|
B-------------------------------|
G---121212-111111-999-777-99-11-|x11
D-------------------------------|
A-------------------------------|
E-------------------------------|

backing

e---------------------|
B---------------------|
G---------------------|
D---2----4----7----2--|
A---2----4----7----2--|
E---0----2----5----0--|

then...
e----------------------------|
B---5-3--5-3--5-3--5-3--5--3-|
G------4----4----4----4------|X7
D----------------------------|
A----------------------------|
E----------------------------|

Sorry can't tab the solo at the mo. When i figure it out i'll be sure to put it up. For 
looking to work it out its basically some pentatonic wankery with a bunch of awesome licks.
Добавлено: 16.04.2012
Другие материалы по этой песне:

Страница создана 12.04.2012
http://primanota.ru/black-tide/prowler-chords.htm
Привет, Гость.
Предлагаем пройти революционный курс по гитаре.
Подарок от PrimaNota.Ru, забирай!