PrimaNota.ru - самый крупный в мире бесплатный архив песенных текстов, аккордов, табулатур и нот


Black Tide - Love Is Rising - таба, видео

Регистрация Запомнить меня
Войти через:  Facebook Google Twitter Vk Yandex Mail.ru

Black Tide - Love Is Rising - таба, видео

Печатать
Просмотров: 149
                  this part is undistorted
1----------------------------------------------------------------|
2----------------------------------------------------------------|
3----------------------------------------------------------------|
4-----5-4-3------------------------------------------------------|
5----4-----4-----------------------------------------------------| play this 8 times
6---3-------5-4-3------------------------------------------------|
                 add distortion
1-------------------------------------------------------------------|
2-------------------------------------------------------------------|
3-------------------------------------------------------------------|
4--1-----3------5---5-----7------10------4--------------------------|
5--1-----3------5---5-----7------10------4--------------------------|
6--------2------4---4-----6------9-------3--------------------------|

     verse                           play chorus twice
1--------------------------------------------------------------------------|
2--------------------------------------------------------------------------|
3-----------------------------chorus---------------------------------------|
4--1----3----5---5-5-------9-9-9-9-9---7-7-7-7-7---5-5-5-5--3-0-4----------|
5--1----3----5---5-5-------7-7-7-7-7---5-5-5-5-5---3-3-3-3--1-0-2----------|
6-------2----4---4-4-------------------------------------------------------|

                        repeat verse then chorus 3 times

1---------------------------------------------------------15-17------|
2----------------------------------------------------15-17-----------|
3-----------------------------------------------15-17----------------|
4-5-5-5-5--3-0-4---------------------------15-17---------------------|
5-3-3-3-3--1-0-2---X3-----------------15-17--------------------------|
6-1--------------------------13--15-17-------------------------------|
 slide from fret one to fret 13

                              solo
        tap   make each set of taps last 3 seconds   dont tap the three 13's
1-12-15-19--12-14-19--12-16-19--12-13-19--13--13-13-----------------|
2-------------------------------------------------------------------|
3-------------------------------------------------------------------|
4-------------------------------------------------------------------|
5-------------------------------------------------------------------|
6-------------------------------------------------------------------|

                     solo     tremolo pick for 5 seconds on these 13's
1-8--8-9-10-------15------13-13-13-13--------------------------|
2--6--------12-13-----12---------------------------------------|
3-------------------17-----------------------------------------|
4--------------------------------------------------------------|
5--------------------------------------------------------------|
6--------------------------------------------------------------|
             repeat 3 times]
                  solo (last part)  tremolo pick for 3 seconds on these 19's
1-13-15-17---14------19--19--19--19-----------------------------------|
2---------12------18--------------------------------------------------|
3---------------17----------------------------------------------------|
4---------------------------------------------------------------------|
5---------------------------------------------------------------------|
6---------------------------------------------------------------------|

1-------------------------------------------------------------------------|
2-------------------------------------------------------------------------|
3-------------------------------------------------------------------------|
4--9-9-9--7-7-7--9-9-9--7-7-7--9-9-9--7-7-7--7--5-push--------------------|
5--9-9-9--7-7-7--9-9-9--7-7-7--9-9-9--7-7-7--7--5-whammy------------------|
6--9-9-9--7-7-7--9-9-9--7-7-7--9-9-9--7-7-7--7--5-bar---down--------------|

1---------------------------------------------------------------|
2---------------------------------------------------------------|
3---------------------------------------------------------------|
4-1---3---5--5-5-5---9-9-9-9-9--7-7-7-7-7--5-5-5-5--3-0-4-------|play
5-1---3---5--5-5-5---7-7-7-7-7--5-5-5-5-5--3-3-3-3--1-0-2-------|twice
6-----2---4--4-4-4----------------------------------------------|

1--------------------------------------------------------------------|
2--------------------------------------------------------------------|
3--tremolo pick 2 to 12 on 4th string--------------------------------|
4--2------------------12--------then play chorus 5 times-------------|
5--------------------------------------------------------------------|
6--------------------------------------------------------------------|
                             outro
1-----------------------------------------------------------------------|
2-----------------------------------------------------------------------|
3-----------------------------------------------------------------------|
4--7-7-7--5-5-5--7-7-7--5-5-5--7-7-7--5-5-5---X-X--3-------------3------|
5--7-7-7--5-5-5--7-7-7--5-5-5--7-7-7--5-5-5---X-X--3-------------3------|
6--7-7-7--5-5-5--7-7-7--5-5-5--7-7-7--5-5-5---X-X----------------2------|
                             end of song
Добавлено: 31.03.2012
Другие материалы по этой песне:
  • Аккорды и текст

Страница создана 31.03.2012
http://primanota.ru/black-tide/love-is-rising-chords.htm
Привет, Гость.
Предлагаем пройти революционный курс по гитаре.
Подарок от PrimaNota.Ru, забирай!