PrimaNota.ru - самый крупный в мире бесплатный архив песенных текстов, аккордов, табулатур и нот


Black Swine Down - Rumble Pit - таба, видео

Регистрация Запомнить меня
Войти через:  Facebook Google Twitter Vk Yandex Mail.ru

Black Swine Down - Rumble Pit - таба, видео

Печатать
Просмотров: 88
Уроки эстрадного вокала в Санкт-Петербурге
Intro
E[------------------------------------------------]
B[------------------------------------------------]
G[-8-8-8-8-8-8-8-8-8-8/9-\\4-4-4-4-4-4-4-4-4-4-4-4]
D[-6-6-6-6-6-6-6-6-6-6/7-\\2-2-2-2-2-2-2-2-2-2-2-2] x3
A[------------------------------------------------]
D[------------------------------------------------] 


E[--------------------------------------0---------]
B[--------------------------------------0---------]
G[-8-8-8-8-8-8-8-8-8-8/9-\\4-4-4-4-4-4--0---------]
D[-6-6-6-6-6-6-6-6-6-6/7-\\2-2-2-2-2-2------------] x1
A[------------------------------------------------]
D[-------------------------------------------12\\\] 


Verse
E[--------------------------------]    E[--------------------------------]
B[--------------------------------]    B[--------------------------------]
G[--------------------------------]    G[--------------------------------]
D[-1-----1-----1------------------] x3 D[-1-----1-----1------1h3-0-5h3---] x1
A[-1-x-x-1-x-x-1-x-x--------------]    A[-1-x-x-1-x-x-1-x-x--1h3-0-5h3---]
D[-1-x-x-1-x-x-1-x-x--1h3-0h5p0---]    D[-1-x-x-1-x-x-1-x-x--1h3-0-5h3---]


E[--------------------------------]    E[--------------------------------]
B[--------------------------------]    B[--------------------------------]
G[--------------------------------]    G[--------------------------------]
D[-1-----1-----1------------------] x3 D[-1-----1-----1------1h3-0-5h3---] x1
A[-1-x-x-1-x-x-1-x-x--------------]    A[-1-x-x-1-x-x-1-x-x--1h3-0-5h3---]
D[-1-x-x-1-x-x-1-x-x--1h3-0h5p0---]    D[-1-x-x-1-x-x-1-x-x--1h3-0-5h3---]


E[--------------------------------]    E[--------------------------------]
B[--------------------------------]    B[--------------------------------]
G[--------------------------------]    G[--------------------------------]
D[-1-----1-----1------------------] x3 D[-1-----1-----1------1h3-0-5h3---] x1
A[-1-x-x-1-x-x-1-x-x--------------]    A[-1-x-x-1-x-x-1-x-x--1h3-0-5h3---]
D[-1-x-x-1-x-x-1-x-x--1h3-0h5p0---]    D[-1-x-x-1-x-x-1-x-x--1h3-0-5h3---]


Chorus
E[------------------------------------------------]    [---------]
B[------------------------------------------------]    [---------]
G[------------------------------------------------]    [---------]
D[-12----10-13----------------13----10---0--------] x2 [---------] x1
A[-12----10-13----------------13----10---0--------]    [---------]
D[-12----10-13----10h12-12-12-13----10---0--------]    [--12\\\--]


Verse
E[--------------------------------]    E[--------------------------------]
B[--------------------------------]    B[--------------------------------]
G[--------------------------------]    G[--------------------------------]
D[-1-----1-----1------------------] x3 D[-1-----1-----1------1h3-0-5h3---] x1
A[-1-x-x-1-x-x-1-x-x--------------]    A[-1-x-x-1-x-x-1-x-x--1h3-0-5h3---]
D[-1-x-x-1-x-x-1-x-x--1h3-0h5p0---]    D[-1-x-x-1-x-x-1-x-x--1h3-0-5h3---]


E[--------------------------------]    E[--------------------------------]
B[--------------------------------]    B[--------------------------------]
G[--------------------------------]    G[--------------------------------]
D[-1-----1-----1------------------] x3 D[-1-----1-----1------1h3-0-5h3---] x1
A[-1-x-x-1-x-x-1-x-x--------------]    A[-1-x-x-1-x-x-1-x-x--1h3-0-5h3---]
D[-1-x-x-1-x-x-1-x-x--1h3-0h5p0---]    D[-1-x-x-1-x-x-1-x-x--1h3-0-5h3---]


E[--------------------------------]    E[--------------------------------]
B[--------------------------------]    B[--------------------------------]
G[--------------------------------]    G[--------------------------------]
D[-1-----1-----1------------------] x3 D[-1-----1-----1------1h3-0-5h3---] x1
A[-1-x-x-1-x-x-1-x-x--------------]    A[-1-x-x-1-x-x-1-x-x--1h3-0-5h3---]
D[-1-x-x-1-x-x-1-x-x--1h3-0h5p0---]    D[-1-x-x-1-x-x-1-x-x--1h3-0-5h3---]


Chorus
E[------------------------------------------------]    
B[------------------------------------------------]    
G[------------------------------------------------]    
D[-12----10-13----------------13----10---0--------] x2 
A[-12----10-13----------------13----10---0--------]    
D[-12----10-13----10h12-12-12-13----10---0--------]


Interlude
E[------------------------------------------------]
B[------------------------------------------------]
G[-8-8-8-8-8-8-8-8-8-8/9-\\4-4-4-4-4-4-4-4-4-4-4-4]
D[-6-6-6-6-6-6-6-6-6-6/7-\\2-2-2-2-2-2-2-2-2-2-2-2] x3
A[------------------------------------------------]
D[------------------------------------------------] 


E[--------------------------------------0---------]
B[--------------------------------------0---------]
G[-8-8-8-8-8-8-8-8-8-8/9-\\4-4-4-4-4-4--0---------]
D[-6-6-6-6-6-6-6-6-6-6/7-\\2-2-2-2-2-2------------] x1
A[------------------------------------------------]
D[-------------------------------------------12\\\]  


Breakdown {percussion section}   
E[--------------------------------]
B[--------------------------------]
G[--------------------------------]
D[-1p0---1p0---1p0------1---1h3---] x2
A[-1p0-0-1p0-0-1p0-0--0h1-0-1h3---]
D[-1p0-0-1p0-0-1p0-0--0h1-0-1h3---]


E[--------------------------------]
B[--------------------------------]
G[--------------------------------]
D[-1-x-x-1-x-x-1-x-x----1---1-----] x2
A[-1-x-x-1-x-x-1-x-x--xh1-x-1-----]
D[-1-x-x-1-x-x-1-x-x--xh1-x-1h3b--]
pm . . . . . . . . .  . . . . . 


Outro
E[--------------------------------]
B[--------------------------------]
G[--------------------------------]
D[-1p0---1p0---1p0------1---1h3---] x1
A[-1p0-0-1p0-0-1p0-0--0h1-0-1h3---]
D[-1p0-0-1p0-0-1p0-0--0h1-0-1h3---]

   
E[---------------------.]
B[---------------------.]
G[---------------------.]
D[-1p0---1p0---1p0----1.] x1
A[-1p0-0-1p0-0-1p0-0--1.]
D[-1p0-0-1p0-0-1p0-0--1.]

Добавлено: 24.06.2013
Другие материалы по этой песне:
  • Аккорды и текст

Страница создана 24.06.2013
http://primanota.ru/black-swine-down/rumble-pit-chords.htm
Привет, Гость.
Предлагаем пройти революционный курс по гитаре.
Подарок от PrimaNota.Ru, забирай!