PrimaNota.ru - самый крупный в мире бесплатный архив песенных текстов, аккордов, табулатур и нот


Black Stone Cherry - Such A Shame - текст песни, таба, видео

Регистрация Запомнить меня
Войти через:  Facebook Google Twitter Vk Yandex Mail.ru

Black Stone Cherry - Such A Shame - текст песни, таба, видео

Печатать
Просмотров: 218
Such A Shame
Black Stone Cherry
Between the Devil & the Deep Blue Sea (2011)

Words & Music by Black Stone Cherry and Richard Young

NOTE: I could not figure out the solo, only the rhythm behind it.

GTR I - Drop C Tuning "Chris Robertson" (d,A,F,C,G,C)
GTR II - Drop C Tuning "Ben Wells" (d,A,F,C,G,C)

Intro

  GTR I,II
d|--------------0----------|
A|--x----------------------|
F|--2----------------------|
C|--0----------------------|
G|--0----------------------|
C|--0----------------------|

Main Riff

  GTR I,II
d|-------------------------------------------------|
A|-------------------------------------------------|
F|-------------------------------------------------|
C|-------------------------------------------------|
G|-------------------------------------------------|
C|--0-10-12--0-13-12--0-15-13--0-13-12--0-10-12~---|

  GTR I,II
d|-------------------------------------------------|
A|-------------------------------------------------|
F|-------------------------------------------------|
C|-------------------------------------------------|
G|-------------------------------------------------|
C|--0-10-12--0-13-12--0-15-13--0-13-12--0-17-15~---|

  GTR I,II
d|-------------------------------------------------|
A|-------------------------------------------------|
F|-------------------------------------------------|
C|-------------------------------------------------|
G|-------------------------------------------------|
C|--0-10-12--0-13-12--0-15-13--0-13-12--0-10-12~---|

  GTR I,II
d|-------------------------------------------------|
A|-------------------------------------------------|
F|-------------------------------------------------|
C|-------------------------------------------------|
G|-------------------------------------------------|
C|--0-10-12--0-13-12--0-15-13--0-13-12--0--5--3~---|

Verse

  GTR I,II
d|-------------------------------------------------|
A|-------------------------------------------------|
F|-------------------------------------------------|
C|-------------------------------------------------|
G|--0--0--0-----0--0-----0--0--0--0-----0-----0----|
C|--0--0--0-----0--0-----0--0--0--0-----0-----0----|
    .  .  .     .  .     .  .  .  .     .     .

  GTR I,II
d|-------------------------------------------------|
A|-------------------------------------------------|
F|-------------------------------------------------|
C|-----------------------------------3p-0----------|
G|--0--0--0-----0--0-----0--5p-3--0--------0--3h-5-|
C|--0--0--0-----0--0-----0-------------------------|
    .  .  .     .  .     .        .        .   

  GTR I,II
d|-------------------------------------------------|
A|-------------------------------------------------|
F|-------------------------------------------------|
C|-------------------------------------------------|
G|--0--0--0-----0--0-----0--0--0--0-----0-----0----|
C|--0--0--0-----0--0-----0--0--0--0-----0-----0----|
    .  .  .     .  .     .  .  .  .     .     .

  GTR I,II                                    PH.
d|-------------------------------------------------|
A|-------------------------------------------------|
F|-------------------------------------------------|
C|-------------------------------------------------|
G|--0--0--0-----0--0-----0--5p-3-------------------|
C|--0--0--0-----0--0-----0--------0--5p-3--0--3b---|
    .  .  .     .  .     .        .        .   

  GTR I,II
d|-------------------------------------------------|
A|-------------------------------------------------|
F|-------------------------------------------------|
C|-------------------------------------------------|
G|--0--0--0-----0--0-----0--0--0--0-----0-----0----|
C|--0--0--0-----0--0-----0--0--0--0-----0-----0----|
    .  .  .     .  .     .  .  .  .     .     .

  GTR I,II
d|-------------------------------------------------|
A|-------------------------------------------------|
F|-------------------------------------------------|
C|-----------------------------------3p-0----------|
G|--0--0--0-----0--0-----0--5p-3--0--------0--3h-5-|
C|--0--0--0-----0--0-----0-------------------------|
    .  .  .     .  .     .        .        .   

  GTR I,II
d|-------------------------------------------------|
A|-------------------------------------------------|
F|-------------------------------------------------|
C|-------------------------------------------------|
G|--0--0--0-----0--0-----0--0--0--0-----0-----0----|
C|--0--0--0-----0--0-----0--0--0--0-----0-----0----|
    .  .  .     .  .     .  .  .  .     .     .

  GTR I                                    
d|-------------------------------------------------|
A|-------------------------------------------------|
F|-------------------------------------------------|
C|--------------------------5p-3--------------3b---|
G|--0--0--0-----0--0-----0--------5p-3--5----------|
C|--0--0--0-----0--0-----0-------------------------|
 |  .  .  .     .  .     .                     
 |GTR II
d|-------------------------------------------------|
A|-------------------------------------------------|
F|-------------------------12p10-------------10b---|
C|-------------------------------12p10-12----------|
G|--0--0--0-----0--0-----0-------------------------|
C|--0--0--0-----0--0-----0-------------------------|
    .  .  .     .  .     .                     

Pre Chorus

  GTR I
d|-------------------------------------------------|
A|-------------------------------------------------|
F|-10-------10-------10----10-------10-------10----|
C|--8--------8--------8-----8--------8--------8----|
G|--8--------8--------8-----8--------8--------8----|
C|--8--------8--------8-----8--------8--------8----|
 |
 |GTR II
d|--------------------------8----------------------|
A|--8----------------------------------------------|
F|-----------9-------10--------------9-------10----|
C|-------------------------------------------------|
G|-------------------------------------------------|
C|-------------------------------------------------|

  GTR I
d|-------------------------------------------------|
A|-------------------------------------------------|
F|--5--------5--------5-----5--------5--------5----|
C|--3--------3--------3-----5--------5--------5----|
G|--3--------3--------3-----3--------3--------3----|
C|--3--------3--------3----------------------------|
 |
 |GTR II
d|--------------------------8----------------------|
A|--8-----------------------------8----------------|
F|-----------9-------10-----------------9----------|
C|-------------------------------------------------|
G|-------------------------------------------------|
C|-------------------------------------------------|

  GTR I
d|-------------------------------------------------|
A|-------------------------------------------------|
F|-------------------------------------------------|
C|-----------5-------/7--------------5-------/7----|
G|--0--------3-------/5-----0--------3-------/5----|
C|--0--------0--------0-----0--------0--------0----|
 |  .                       .         
 |GTR II
d|--------------------------8----------------------|
A|--8----------------------------------------------|
F|-----------9-------10--------------9-------10----|
C|-------------------------------------------------|
G|-------------------------------------------------|
C|-------------------------------------------------|

  GTR I
d|-------------------------------------------------|
A|-------------------------------------------------|
F|-------------------------------------------------|
C|-----------5-------/7--------------5-------/7----|
G|--0--------3-------/5-----0--------3-------/5----|
C|--0--------0--------0-----0--------0--------0----|
 |  .                       .         
 |GTR II
d|--------------------------8----------------------|
A|--8-----------------------------8----------------|
F|-----------9-------10-----------------9----------|
C|-------------------------------------------------|
G|-------------------------------------------------|
C|-------------------------------------------------|

  GTR I
d|-------------------------------------------------|
A|-------------------------------------------------|
F|-10-------10-------10----10-------10-------10----|
C|--8--------8--------8-----8--------8--------8----|
G|--8--------8--------8-----8--------8--------8----|
C|--8--------8--------8-----8--------8--------8----|
 |
 |GTR II
d|--------------------------8----------------------|
A|--8----------------------------------------------|
F|-----------9-------10--------------9-------10----|
C|-------------------------------------------------|
G|-------------------------------------------------|
C|-------------------------------------------------|

  GTR I
d|-------------------------------------------------|
A|-------------------------------------------------|
F|--5--------5--------5-----5--------5--------5----|
C|--3--------3--------3-----5--------5--------5----|
G|--3--------3--------3-----3--------3--------3----|
C|--3--------3--------3----------------------------|
 |
 |GTR II
d|--------------------------8----------------------|
A|--8-----------------------------8----------------|
F|-----------9-------10-----------------9----------|
C|-------------------------------------------------|
G|-------------------------------------------------|
C|-------------------------------------------------|

  GTR I
d|-------------------------------------------------|
A|-------------------------------------------------|
F|-------------------------------------------------|
C|-----------5-------/7--------------5-------/7----|
G|--0--------3-------/5-----0--------3-------/5----|
C|--0--------0--------0-----0--------0--------0----|
 |  .                       .         
 |GTR II
d|--------------------------8----------------------|
A|--8----------------------------------------------|
F|-----------9-------10--------------9-------10----|
C|-------------------------------------------------|
G|-------------------------------------------------|
C|-------------------------------------------------|

  GTR I
d|-------------------------------------------------|
A|-------------------------------------------------|
F|-------------------------------------------------|
C|-----------5-------/7--------------5-------/7----|
G|--0--------3-------/5-----0--------3-------/5----|
C|--0--------0--------0-----0--------0--------0----|
 |  .                       .         
 |GTR II
d|--------------------------8----------------------|
A|--8-----------------------------8----------------|
F|-----------9-------10-----------------9----------|
C|-------------------------------------------------|
G|-------------------------------------------------|
C|-------------------------------------------------|

Chorus

  GTR I
d|-------------------------------------------------|
A|-------------------------------------------------|
F|--7--7--7--7--7--7--7--7--7--7--7--7--9--9--9--9-|
C|--x--x--x--x--x--x--x--x--x--x--x--x--x--x--x--x-|
G|--5--5--5--5--5--5--5--5--5--5--5--5--7--7--7--7-|
C|-------------------------------------------------|
 |
 |GTR II
d|-------------------------------------------------|
A|-------------------------------------------------|
F|-------------------------------------------------|
C|--0--0--0--0--0--0--0--0--0--0--0--0--0--0--0--0-|
G|--0--0--0--0--0--0--0--0--0--0--0--0--0--0--0--0-|
C|--0--0--0--0--0--0--0--0--0--0--0--0--0--0--0--0-|

  GTR I
d|-------------------------------------------------|
A|-------------------------------------------------|
F|-10-10-10-10-10-10--9--9--9--9--9--9-10-10-10-10-|
C|--x--x--x--x--x--x--x--x--x--x--x--x--x--x--x--x-|
G|--8--8--8--8--8--8--7--7--7--7--7--7--8--8--8--8-|
C|-------------------------------------------------|
 |
 |GTR II
d|-------------------------------------------------|
A|-------------------------------------------------|
F|-------------------------------------------------|
C|--3--3--3--3--3--3--3--3--3--3--3--3--3--3--3--3-|
G|--3--3--3--3--3--3--3--3--3--3--3--3--3--3--3--3-|
C|--3--3--3--3--3--3--3--3--3--3--3--3--3--3--3--3-|

  GTR I
d|-------------------------------------------------|
A|-------------------------------------------------|
F|-12-12-12-12-12-12-10-10-10-10-10-10--9--9--9--9-|
C|--x--x--x--x--x--x--x--x--x--x--x--x--x--x--x--x-|
G|-10-10-10-10-10-10--8--8--8--8--8--8--7--7--7--7-|
C|-------------------------------------------------|
 |
 |GTR II
d|-------------------------------------------------|
A|-------------------------------------------------|
F|--5--5--5--5--5--5--5--5--5--5--5--5--5--5--5--5-|
C|--5--5--5--5--5--5--5--5--5--5--5--5--5--5--5--5-|
G|--3--3--3--3--3--3--3--3--3--3--3--3--3--3--3--3-|
C|-------------------------------------------------|

  GTR I
d|-------------------------------------------------|
A|-------------------------------------------------|
F|-10-10-10-10-10-10--9--9--9--9--9--9--5--5--5--5-|
C|--x--x--x--x--x--x--x--x--x--x--x--x--x--x--x--x-|
G|--8--8--8--8--8--8--7--7--7--7--7--7--3--3--3--3-|
C|-------------------------------------------------|
 |
 |GTR II
d|-------------------------------------------------|
A|-------------------------------------------------|
F|-------------------------------------------------|
C|--5--5--5--5--5--5--5--5--5--5--5--5--5--5--5--5-|
G|--5--5--5--5--5--5--5--5--5--5--5--5--5--5--5--5-|
C|--5--5--5--5--5--5--5--5--5--5--5--5--5--5--5--5-|

  GTR I
d|-------------------------------------------------|
A|-------------------------------------------------|
F|--7--7--7--7--7--7--7--7--7--7--7--7--9--9--9--9-|
C|--x--x--x--x--x--x--x--x--x--x--x--x--x--x--x--x-|
G|--5--5--5--5--5--5--5--5--5--5--5--5--7--7--7--7-|
C|-------------------------------------------------|
 |
 |GTR II
d|-------------------------------------------------|
A|-------------------------------------------------|
F|-------------------------------------------------|
C|--0--0--0--0--0--0--0--0--0--0--0--0--0--0--0--0-|
G|--0--0--0--0--0--0--0--0--0--0--0--0--0--0--0--0-|
C|--0--0--0--0--0--0--0--0--0--0--0--0--0--0--0--0-|

  GTR I
d|-------------------------------------------------|
A|-------------------------------------------------|
F|-10-10-10-10-10-10--9--9--9--9--9--9-10-10-10-10-|
C|--x--x--x--x--x--x--x--x--x--x--x--x--x--x--x--x-|
G|--8--8--8--8--8--8--7--7--7--7--7--7--8--8--8--8-|
C|-------------------------------------------------|
 |
 |GTR II
d|-------------------------------------------------|
A|-------------------------------------------------|
F|-------------------------------------------------|
C|--3--3--3--3--3--3--3--3--3--3--3--3--3--3--3--3-|
G|--3--3--3--3--3--3--3--3--3--3--3--3--3--3--3--3-|
C|--3--3--3--3--3--3--3--3--3--3--3--3--3--3--3--3-|

  GTR I
d|-------------------------------------------------|
A|-------------------------------------------------|
F|-12-12-12-12-12-12-10-10-10-10-10-10--9--9--9--9-|
C|--x--x--x--x--x--x--x--x--x--x--x--x--x--x--x--x-|
G|-10-10-10-10-10-10--8--8--8--8--8--8--7--7--7--7-|
C|-------------------------------------------------|
 |
 |GTR II
d|-------------------------------------------------|
A|-------------------------------------------------|
F|--5--5--5--5--5--5--5--5--5--5--5--5--5--5--5--5-|
C|--5--5--5--5--5--5--5--5--5--5--5--5--5--5--5--5-|
G|--3--3--3--3--3--3--3--3--3--3--3--3--3--3--3--3-|
C|-------------------------------------------------|

  GTR I
d|-------------------------------------------------|
A|-------------------------------------------------|
F|-10-10-10-10-10-10--9--9--9--9--9--9--5--5--5--5-|
C|--x--x--x--x--x--x--x--x--x--x--x--x--x--x--x--x-|
G|--8--8--8--8--8--8--7--7--7--7--7--7--3--3--3--3-|
C|-------------------------------------------------|
 |
 |GTR II
d|-------------------------------------------------|
A|-------------------------------------------------|
F|-------------------------------------------------|
C|--5--5--5--5--5--5--5--5--5--5--5--5--5--5--5--5-|
G|--5--5--5--5--5--5--5--5--5--5--5--5--5--5--5--5-|
C|--5--5--5--5--5--5--5--5--5--5--5--5--5--5--5--5-|

Post Chorus

  GTR I,II
d|-------------------------------------------------|
A|-------------------------------------------------|
F|-------------------------------------------------|
C|-------------------------------------------------|
G|-------------------------------------------------|
C|--0-10-12--0-13-12--0-15-13--0-13-12--0--5--3~---|

Verse 2

  GTR I,II
d|-------------------------------------------------|
A|-------------------------------------------------|
F|-------------------------------------------------|
C|-------------------------------------------------|
G|--0--0--0-----0--0-----0--0--0--0-----0-----0----|
C|--0--0--0-----0--0-----0--0--0--0-----0-----0----|
    .  .  .     .  .     .  .  .  .     .     .

  GTR I,II
d|-------------------------------------------------|
A|-------------------------------------------------|
F|-------------------------------------------------|
C|-----------------------------------3p-0----------|
G|--0--0--0-----0--0-----0--5p-3--0--------0--3h-5-|
C|--0--0--0-----0--0-----0-------------------------|
    .  .  .     .  .     .        .        .   

  GTR I,II
d|-------------------------------------------------|
A|-------------------------------------------------|
F|-------------------------------------------------|
C|-------------------------------------------------|
G|--0--0--0-----0--0-----0--0--0--0-----0-----0----|
C|--0--0--0-----0--0-----0--0--0--0-----0-----0----|
    .  .  .     .  .     .  .  .  .     .     .

  GTR I,II                                    PH.
d|-------------------------------------------------|
A|-------------------------------------------------|
F|-------------------------------------------------|
C|-------------------------------------------------|
G|--0--0--0-----0--0-----0--5p-3-------------------|
C|--0--0--0-----0--0-----0--------0--5p-3--0--3b---|
    .  .  .     .  .     .        .        .   

  GTR I,II
d|-------------------------------------------------|
A|-------------------------------------------------|
F|-------------------------------------------------|
C|-------------------------------------------------|
G|--0--0--0-----0--0-----0--0--0--0-----0-----0----|
C|--0--0--0-----0--0-----0--0--0--0-----0-----0----|
    .  .  .     .  .     .  .  .  .     .     .

  GTR I,II
d|-------------------------------------------------|
A|-------------------------------------------------|
F|-------------------------------------------------|
C|-----------------------------------3p-0----------|
G|--0--0--0-----0--0-----0--5p-3--0--------0--3h-5-|
C|--0--0--0-----0--0-----0-------------------------|
    .  .  .     .  .     .        .        .   

  GTR I,II
d|-------------------------------------------------|
A|-------------------------------------------------|
F|-------------------------------------------------|
C|-------------------------------------------------|
G|--0--0--0-----0--0-----0--0--0--0-----0-----0----|
C|--0--0--0-----0--0-----0--0--0--0-----0-----0----|
    .  .  .     .  .     .  .  .  .     .     .

  GTR I,II
d|-------------------------------------------------|
A|-------------------------15p13-------13----------|
F|--7--7--7--7--7--7--7--7-------14p12----14-------|
C|--x--x--x--x--x--x--x--x-------------------15----|
G|--5--5--5--5--5--5--5--5-------------------------|
C|-------------------------------------------------|
                                               
Pre Chorus
Chorus

Guitar Solo (Played by GTR I)

  GTR II
d|-------------------------------------------------|
A|-------------------------------------------------|
F|-------------------------------------------------|
C|-------------------------------------------------|
G|--0--0--0--0--0--0--0--0--0--0--0--0--0--0--0--0-|
C|--0--0--0--0--0--0--0--0--0--0--0--0--0--0--0--0-|
    .  .  .  .  .  .  .  .  .  .  .  .  .  .  .  .

  GTR II
d|-------------------------------------------------|
A|-------------------------------------------------|
F|-------------------------------------------------|
C|-------------------------------------------------|
G|-------------------------------------------------|
C|--5br5--3--5br5--3--5br5--3--5br5--3--5br5--3~---|

  GTR II
d|-------------------------------------------------|
A|-------------------------------------------------|
F|-------------------------------------------------|
C|-------------------------------------------------|
G|--0--0--0--0--0-----0-----0--0--0--0--------0----|
C|--0--0--0--0--0-----0-----0--0--0--0--------0----|
    .  .  .  .  .     .     .  .  .  .        .   

  GTR II
d|-------------------------------------------------|
A|-------------------------------------------------|
F|-------------------------------------------------|
C|-------------------------------------------------|
G|--3--3--3--3--------3-----3--3--3--3--------3----|
C|--3--3--3--3--------3-----3--3--3--3--------3----|
    .  .  .  .        .     .  .  .  .        .   

  GTR II
d|-------------------------------------------------|
A|-------------------------------------------------|
F|-------------------------------------------------|
F|--5--5--5--5--------5-----5--5--5--5--------5----|
G|--3--3--3--3--------3-----3--3--3--3--------3----|
C|-------------------------------------------------|
    .  .  .  .        .     .  .  .  .        .   

  GTR II
d|-------------------------------------------------|
A|-------------------------------------------------|
F|-------------------------------------------------|
C|-------------------------------------------------|
G|--5--5--5--5--------5-----5--5--5--5--------5----|
C|--5--5--5--5--------5-----5--5--5--5--------5----|
    .  .  .  .        .     .  .  .  .        .   

  GTR II
d|-------------------------------------------------|
A|-------------------------------------------------|
F|-------------------------------------------------|
C|-------------------------------------------------|
G|--0--0--0--0--------0-----0--0--0--0--------0----|
C|--0--0--0--0--------0-----0--0--0--0--------0----|
    .  .  .  .        .     .  .  .  .        .   

  GTR II
d|-------------------------------------------------|
A|-------------------------------------------------|
F|-------------------------------------------------|
C|-------------------------------------------------|
G|--3--3--3--3--------3-----3--3--3--3--------3----|
C|--3--3--3--3--------3-----3--3--3--3--------3----|
    .  .  .  .        .     .  .  .  .        .   

  GTR II
d|-------------------------------------------------|
A|-------------------------------------------------|
F|-------------------------------------------------|
F|--5--5--5--5--------5-----5--5--5--5--------5----|
G|--3--3--3--3--------3-----3--3--3--3--------3----|
C|-------------------------------------------------|
    .  .  .  .        .     .  .  .  .        .   

  GTR II
d|-------------------------------------------------|
A|-------------------------------------------------|
F|-------------------------------------------------|
C|-------------------------------------------------|
G|--5--5--5--5--------5-----5--5--5--5--------5----|
C|--5--5--5--5--------5-----5--5--5--5--------5----|
    .  .  .  .        .     .  .  .  .        .   

Bridge

  GTR I,II
d|-------------------------------------------------|
A|-------------------------------------------------|
F|-------------------------------------------------|
C|--7--7--7--7--7--7--7--7--7--7--7--7--7--7--7--7-|
G|--5--5--5--5--5--5--5--5--5--5--5--5--5--5--5--5-|
C|-------------------------------------------------|

  GTR I,II
d|-------------------------------------------------|
A|-------------------------------------------------|
F|-------------------------------------------------|
C|--7--7--7--7--7--7--7--7--7--7--7--7--7--7--7--7-|
G|--4--4--4--4--4--4--4--4--4--4--4--4--4--4--4--4-|
C|-------------------------------------------------|

  GTR I,II
d|-------------------------------------------------|
A|-------------------------------------------------|
F|-------------------------------------------------|
C|--5--5--5--5--5--5--5--5--5--5--5--5--5--5--5--5-|
G|--3--3--3--3--3--3--3--3--3--3--3--3--3--3--3--3-|
C|-------------------------------------------------|

  GTR I,II
d|-------------------------------------------------|
A|-------------------------------------------------|
F|-------------------------------------------------|
C|--5--5--5--5--5--5--5--5--5--5--5--5--5--5--5--5-|
G|--2--2--2--2--2--2--2--2--2--2--2--2--2--2--2--2-|
C|-------------------------------------------------|

  GTR I,II
d|-------------------------------------------------|
A|-------------------------------------------------|
F|-------------------------------------------------|
C|--8--8--8--8--8--8--8--8--8--8--8--8--8--8--8--8-|
G|--8--8--8--8--8--8--8--8--8--8--8--8--8--8--8--8-|
C|--8--8--8--8--8--8--8--8--8--8--8--8--8--8--8--8-|

  GTR I,II
d|-------------------------------------------------|
A|-------------------------------------------------|
F|-------------------------------------------------|
C|--7--7--7--7--7--7--7--7--7--7--7--7--7--7--7--7-|
G|--8--8--8--8--8--8--8--8--8--8--8--8--8--8--8--8-|
C|--7--7--7--7--7--7--7--7--7--7--7--7--7--7--7--7-|

  GTR I,II
d|-------------------------------------------------|
A|-------------------------------------------------|
F|-------------------------------------------------|
C|--5--5--5--5--5--5--5--5--5--5--5--5--5--5--5--5-|
G|--5--5--5--5--5--5--5--5--5--5--5--5--5--5--5--5-|
C|--5--5--5--5--5--5--5--5--5--5--5--5--5--5--5--5-|

  GTR I
d|-------------------------------------------------|
A|-------------------------------------------------|
F|-------------------------------------------------|
C|--7--7--7--7--7--7--7--7--5----------------------|
G|--7--7--7--7--7--7--7--7-----8--7--5--8--7--5--3-|
C|--7--7--7--7--7--7--7--7-------------------------|
 |
 |GTR II
d|-------------------------------------------------|
A|-------------------------------------------------|
F|-------------------------12----------------------|
C|--7--7--7--7--7--7--7--7----15-14-12-15-14-12-10-|
G|--7--7--7--7--7--7--7--7-------------------------|
C|--7--7--7--7--7--7--7--7-------------------------|

Chorus 2

  GTR I,II
d|-------------|-------------|-------------|-------------|
A|-------------|-------------|-------------|-------------|
F|-------------|-------------|-------------|-------------|
C|--0----------|-------------|-------------|-------------|
G|--0----------|-------------|-------------|-------------|
C|--0----------|-------------|-------------|-------------|

  GTR I
d|-------------------------------------------------|
A|-------------------------------------------------|
F|--7--7--7--7--7--7--7--7--7--7--7--7--9--9--9--9-|
C|--x--x--x--x--x--x--x--x--x--x--x--x--x--x--x--x-|
G|--5--5--5--5--5--5--5--5--5--5--5--5--7--7--7--7-|
C|-------------------------------------------------|
 |
 |GTR II
d|-------------------------------------------------|
A|-------------------------------------------------|
F|-------------------------------------------------|
C|--0--0--0--0--0--0--0--0--0--0--0--0--0--0--0--0-|
G|--0--0--0--0--0--0--0--0--0--0--0--0--0--0--0--0-|
C|--0--0--0--0--0--0--0--0--0--0--0--0--0--0--0--0-|

  GTR I
d|-------------------------------------------------|
A|-------------------------------------------------|
F|-10-10-10-10-10-10--9--9--9--9--9--9-10-10-10-10-|
C|--x--x--x--x--x--x--x--x--x--x--x--x--x--x--x--x-|
G|--8--8--8--8--8--8--7--7--7--7--7--7--8--8--8--8-|
C|-------------------------------------------------|
 |
 |GTR II
d|-------------------------------------------------|
A|-------------------------------------------------|
F|-------------------------------------------------|
C|--3--3--3--3--3--3--3--3--3--3--3--3--3--3--3--3-|
G|--3--3--3--3--3--3--3--3--3--3--3--3--3--3--3--3-|
C|--3--3--3--3--3--3--3--3--3--3--3--3--3--3--3--3-|

  GTR I
d|-------------------------------------------------|
A|-------------------------------------------------|
F|-12-12-12-12-12-12-10-10-10-10-10-10--9--9--9--9-|
C|--x--x--x--x--x--x--x--x--x--x--x--x--x--x--x--x-|
G|-10-10-10-10-10-10--8--8--8--8--8--8--7--7--7--7-|
C|-------------------------------------------------|
 |
 |GTR II
d|-------------------------------------------------|
A|-------------------------------------------------|
F|--5--5--5--5--5--5--5--5--5--5--5--5--5--5--5--5-|
C|--5--5--5--5--5--5--5--5--5--5--5--5--5--5--5--5-|
G|--3--3--3--3--3--3--3--3--3--3--3--3--3--3--3--3-|
C|-------------------------------------------------|

  GTR I
d|-------------------------------------------------|
A|-------------------------------------------------|
F|-10-10-10-10-10-10--9--9--9--9--9--9--5--5--5--5-|
C|--x--x--x--x--x--x--x--x--x--x--x--x--x--x--x--x-|
G|--8--8--8--8--8--8--7--7--7--7--7--7--3--3--3--3-|
C|-------------------------------------------------|
 |
 |GTR II
d|-------------------------------------------------|
A|-------------------------------------------------|
F|-------------------------------------------------|
C|--5--5--5--5--5--5--5--5--5--5--5--5--5--5--5--5-|
G|--5--5--5--5--5--5--5--5--5--5--5--5--5--5--5--5-|
C|--5--5--5--5--5--5--5--5--5--5--5--5--5--5--5--5-|

Chorus 3

  GTR I
d|-------------------------------------------------|
A|-------------------------------------------------|
F|-------------------------------------------------|
C|-------------------------------------------------|
G|--5~----------------------------------4~---------|
C|-------------------------------------------------|
 |
 |GTR II
d|-------------------------------------------------|
A|-------------------------------------------------|
F|-------------------------------------------------|
C|-------------------------------------------------|
G|--0--0--0--0--0--0--0--0--0--0--0--0--0--0--0--0-|
C|--0--0--0--0--0--0--0--0--0--0--0--0--0--0--0--0-|
    .  .  .  .  .  .  .  .  .  .  .  .  .  .  .  .

  GTR I
d|-------------------------------------------------|
A|-------------------------------------------------|
F|-------------------------------------------------|
C|-------------------------------------------------|
G|--3~---------------------------------------------|
C|-------------------------------------------------|
 |
 |GTR II
d|-------------------------------------------------|
A|-------------------------------------------------|
F|-------------------------------------------------|
C|-------------------------------------------------|
G|--3--3--3--3--3--3--3--3--3--3--3--3--3--3--3--3-|
C|--3--3--3--3--3--3--3--3--3--3--3--3--3--3--3--3-|
    .  .  .  .  .  .  .  .  .  .  .  .  .  .  .  .

  GTR I
d|-------------------------------------------------|
A|-------------------------------------------------|
F|-------------------------------------------------|
C|-------------------------------------------------|
G|--3~----------------------------------1~---------|
C|-------------------------------------------------|
 |
 |GTR II
d|-------------------------------------------------|
A|-------------------------------------------------|
F|-------------------------------------------------|
C|--5--5--5--5--5--5--5--5--5--5--5--5--5--5--5--5-|
G|--3--3--3--3--3--3--3--3--3--3--3--3--3--3--3--3-|
C|-------------------------------------------------|
    .  .  .  .  .  .  .  .  .  .  .  .  .  .  .  .

  GTR I
d|-------------------------------------------------|
A|-------------------------------------------------|
F|-------------------------------------------------|
C|-------------------------------------------------|
G|--0----------------------------------------------|
C|-------------------------------------------------|
 |
 |GTR II
d|-------------------------------------------------|
A|-------------------------------------------------|
F|-------------------------------------------------|
C|-------------------------------------------------|
G|--5--5--5--5--5--5--5--5--5--5--5--5--5--5--5--5-|
C|--5--5--5--5--5--5--5--5--5--5--5--5--5--5--5--5-|
    .  .  .  .  .  .  .  .  .  .  .  .  .  .  .  .

  GTR I
d|-------------------------------------------------|
A|-------------------------------------------------|
F|-------------------------------------------------|
C|-------------------------------------------------|
G|--5~----------------------------------4~---------|
C|-------------------------------------------------|
 |
 |GTR II
d|-------------------------------------------------|
A|-------------------------------------------------|
F|-------------------------------------------------|
C|-------------------------------------------------|
G|--0--0--0--0--0--0--0--0--0--0--0--0--0--0--0--0-|
C|--0--0--0--0--0--0--0--0--0--0--0--0--0--0--0--0-|
    .  .  .  .  .  .  .  .  .  .  .  .  .  .  .  .

  GTR I
d|-------------------------------------------------|
A|-------------------------------------------------|
F|-------------------------------------------------|
C|-------------------------------------------------|
G|--3~---------------------------------------------|
C|-------------------------------------------------|
 |
 |GTR II
d|-------------------------------------------------|
A|-------------------------------------------------|
F|-------------------------------------------------|
C|-------------------------------------------------|
G|--3--3--3--3--3--3--3--3--3--3--3--3--3--3--3--3-|
C|--3--3--3--3--3--3--3--3--3--3--3--3--3--3--3--3-|
    .  .  .  .  .  .  .  .  .  .  .  .  .  .  .  .

  GTR I
d|-------------------------------------------------|
A|-------------------------------------------------|
F|-------------------------------------------------|
C|-------------------------------------------------|
G|--3~----------------------------------1~---------|
C|-------------------------------------------------|
 |
 |GTR II
d|-------------------------------------------------|
A|-------------------------------------------------|
F|-------------------------------------------------|
C|--5--5--5--5--5--5--5--5--5--5--5--5--5--5--5--5-|
G|--3--3--3--3--3--3--3--3--3--3--3--3--3--3--3--3-|
C|-------------------------------------------------|
    .  .  .  .  .  .  .  .  .  .  .  .  .  .  .  .

  GTR I
d|-------------------------------------------------|
A|-------------------------------------------------|
F|-------------------------------------------------|
C|-------------------------------------------------|
G|--0----------------------------------------------|
C|-------------------------------------------------|
 |
 |GTR II
d|-------------------------------------------------|
A|-------------------------------------------------|
F|-------------------------------------------------|
C|-------------------------------------------------|
G|--5--5--5--5--5--5--5--5--5--5--5--5--5--5--5--5-|
C|--5--5--5--5--5--5--5--5--5--5--5--5--5--5--5--5-|
    .  .  .  .  .  .  .  .  .  .  .  .  .  .  .  .

Post Chorus 2

  GTR I,II
d|-------------------------------------------------|
A|-------------------------------------------------|
F|-------------------------------------------------|
C|-------------------------------------------------|
G|-------------------------------------------------|
C|--0-10-12--0-13-12--0-15-13--0-13-12--0-10-12~---|

  GTR I
d|-------------------------------------------------|
A|-------------------------------------------------|
F|-----------------------------------------0/------|
C|-------------------------------------------------|
G|-------------------------------------------------|
C|-------------------------------------------------|
 |
 |GTR II
d|-------------------------------------------------|
A|-------------------------------------------------|
F|-------------------------------------------------|
C|-------------------------------------------------|
G|-------------------------------------------------|
C|--0-10-12--0-13-12--0-15-13--0-13-12--0-17-15~---|

  GTR I
d|-------------------------------------------------|
A|-------------------------------------------------|
F|-19~---------------------------------------------|
C|-------------------------------------------------|
G|-------------------------------------------------|
C|-------------------------------------------------|
 |
 |GTR II
d|-------------------------------------------------|
A|-------------------------------------------------|
F|-------------------------------------------------|
C|-------------------------------------------------|
G|-------------------------------------------------|
C|--0-10-12--0-13-12--0-15-13--0-13-12--0-10-12~---|

  GTR I,II
d|-------------------------------------------------|
A|-------------------------------------------------|
F|-------------------------------------------------|
C|-------------------------------------------------|
G|-------------------------------------------------|
C|--0-10-12--0-13-12--0-15-13--0-13-12--0--5--3----|

Outro

  GTR I,II
d|-------------|-------------|
A|-------------|-------------|
F|-------------|-------------|
C|-------------|-------------|
G|-------------|-------------|
C|-------------|-------------|

  GTR I,II
d|-------------------------------------------------|
A|-------------------------------------------------|
F|--------------------3----------------------------|
C|--------------------3--------3--------2----------|
G|--------------------1--------3--------3----------|
C|-----------------------------3-------------------|


| b  bend
| r  release bend
|trp triplet
|PH. pinch harmonic
|fbk feedback
| .  palm-mute
| /  slide up
| \  slide down
| h  hammer-on
| p  pull-off
| ~  vibrato
|(7) harmonic
| x  Mute note
===============================================================================
Добавлено: 12.04.2012
Другие материалы по этой песне:
  • Аккорды и текст

Страница создана 12.04.2012
http://primanota.ru/black-stone-cherry/such-a-shame-chords.htm
Привет, Гость.
Предлагаем пройти революционный курс по гитаре.
Подарок от PrimaNota.Ru, забирай!