PrimaNota.ru - самый крупный в мире бесплатный архив песенных текстов, аккордов, табулатур и нот


Black Stone Cherry - Ghost Of Floyd Collins - текст песни, таба, видео

Регистрация Запомнить меня
Войти через:  Facebook Google Twitter Vk Yandex Mail.ru

Black Stone Cherry - Ghost Of Floyd Collins - текст песни, таба, видео

Печатать
Просмотров: 190
Ghost of floyd collins – Black Stone Cherry
-------------------------------------------------------------------------------
Tabbed by: Astro1979
Email: Nicholas3736@hotmail.com

Tuning: drop C#

Main Riff 1
e|-----------------------------------------------------------------------------|
B|-----------------------------------------------------------------------------|
G|-----------------------------------------------------------------------------|
D|-----------------------------------------------------2-----------------------|
A|---4--------2-----4-4-----2-----4-------2-----4-4------4---------------------|
C#|-----0-2-3---3-2-----3-5---5-----0-2-3---3-2-----3-5------------------------|
Main Riff 2
e|----------------------------------------------------------------------------|
B|----------------------------------------------------------------------------|
G|-13-12-11----11------------------------13-12-11----11-----------------------|
D|----------14----14-11-14-11---------------------14----14-11-14-11-----------|
A|----------------------------11-10-9-7------------------------------11-10-9--|
C#|---------------------------------------------------------------------------|
12 (don't leave out the C# at the end)

Verse Riff 1
e|---------------------------------------------------------------------------|
B|---------------------------------------------------------------------------|
G|-----------------4---------------------------------------------------------|
D|-----------------4--------------2-2-1-----------2h4-2----------------------|
A|-----------2-----2-----2---2h4--------4-2h4-2---------4--------------------|
C#|x-x-0-x-x-3-x-x---x-x-3-x--------------------5----------------------------|

times 2 then

       Verse Riff 2
e|---------------------------------------------------------------------------|
B|---------------------------------------------------------------------------|
G|------2-----4-----------------------------------2---4-2--------------------|
D|------2-----4---------------------------2-3-4-0---4-----4-2----------------|
A|--x-x-0-x-x-2-x-x-4-----5-----6-2-3-4-0---------------------4--------------|
C#|-----------------5-x-x-6-x-x-7--------------------------------------------|

Then Verse Riff 1 again

      Bridge:
e|---------------------------------------------------------------------------|
B|---------------------------------------------------------------------------|
G|---------------------------------------------------------------------------|
D|---------------------------------------------------------------------------|
A|---6-6-6-6-2-2-3-3---------------------------------------------------------|
C#|--7-7-7-7-3-3-5-5---------------------------------------------------------|

       Chorus:
e|---------------------------------------------------------------------------|
B|---------------------------------------------------------------------------|
G|-6-6-4-4-----6-6-2-2-4-4-6-6-----------------------------------------------|
D|-6-6-4-4-----6-6-2-2-4-4-6-6-----------------------------------------------|
A|-4-4-2-2-2-2-4-4-0-0-2-2-4-4-----------------------------------------------|
C#|--------3-3-0-0-----------------------------------------------------------|

e|---------------------------------------------------------------------------|
B|---------------------------------------------------------------------------|
G|-6-6-4-4-----6-6-----------------------------------------------------------|
D|-6-6-4-4-----6-6-----------------------------------------------------------|
A|-4-4-2-2-2-2-4-4-7-7-7-7-6-6-6-6-9--9--9--9--------------------------------|
C#|--------3-3-0-0-8-8-8-8-7-7-7-7-10-10-10-10-------------------------------|

Then its pretty much the whole thing again, then:

       Middle eighth:
e|--------------------------------------------------------------------------|
B|--------------------------------------------------------------------------|
G|--------------------------------------------------------------------------|
D|--2-------2--------2------2-------2-------2-------------------------------|
A|----2-4-----2-4------2-4----2-4-----2-4-----1h2---------------------------|
C#|-------0-------0---------------0-------0---------------------------------|

And thats all the parts, except for the solo. For the solo try doing a C# minor 
or something. Feel free to email comments.
Добавлено: 25.02.2012
Другие материалы по этой песне:

Страница создана 25.02.2012
http://primanota.ru/black-stone-cherry/ghost-of-floyd-collins-chords.htm
Привет, Гость.
Предлагаем пройти революционный курс по гитаре.
Подарок от PrimaNota.Ru, забирай!