PrimaNota.ru - самый крупный в мире бесплатный архив песенных текстов, аккордов, табулатур и нот


Black Stone Cherry - Backwoods Gold - текст песни, таба, видео

Регистрация Запомнить меня
Войти через:  Facebook Google Twitter Vk Yandex Mail.ru

Black Stone Cherry - Backwoods Gold - текст песни, таба, видео

Печатать
Просмотров: 124
-------------------------------------------------------------------------------
BACKWOODS GOLD – Black Stone Cherry
-------------------------------------------------------------------------------
Tabbed by: Nick Dupont (sikk_nick)
Email: sikk_nick@yahoo.com

Tuning: Drop-Db
[Db,Ab,Db,Gb,Bb,eb]

INTRO (play the first measure 3 times, the second measure once)

Guitar 1—Wah pedal
|----------------------------------------3x||------------------------------------------|
|------------------------------------------||------------------------------------------|
|------------------------------------------||------------------------------------------|
|------------------------------------------||------------------------------------------|
|------------------------------------------||------------------------------------------|
|-10-0-12-0-12-0-10-12-0-12-0-10-12-0-10-0-||-10-0-12-0-12-0-10-12-0-12-0-10-12-0-12-0-|


Intro – guitar 2 (starts after guitar 1)

|-------------------------------3x||----------------------------------|
|---------------------------------||----------------------------------|
|---------------------------------||----------------------------------|
|---------------------------------||---------------------------x\-----|
|--3---5---5---3-5---5---3-5---3--||--3---5---5---3-5---5---3--x\-----|
|--0---0---0---0-0---0---0-0---0--||--0---0---0---0-0---0---0--x\-----|


VERSE
Guitar 1
    |--------------------------PM--------------------------------|
|-----------------------------|----------------------------------|
|-----------------------------|----------------------------------|
|-----------------------------|----------------------------------|
|--0-0-0--0-0--0-0--0-0--0-0--|--8-8-8--8-8--8-8--8-8--8-8/10----|
|--0-0-0--0-0--0-0--0-0--0-0--|--8-8-8--8-8--8-8--8-8--8-8/10----|
|--0-0-0--0-0--0-0--0-0--0-0--|--8-8-8--8-8--8-8--8-8--8-8/10----|

    |----------------------------PM-------------------------------------------|
|----------------------------------------|------------------------------------|
|----------------------------------------|------------------------------------|
|----------------------------------------|------------------------------------|
|--12-12-12--12-12--12-12--12-12--12-12--|--5-5-5--5-5--5-5--5-5--5-3---------|
|--12-12-12--12-12--12-12--12-12--12-12--|--5-5-5--5-5--5-5--5-5--5-3---------|
|--12-12-12--12-12--12-12--12-12--12-12--|--5-5-5--5-5--5-5--5-5--5-3---------|


Guitar 2 (simultaneous with guitar 2)
     |--------------PM----------------|   |-|   |-|  |-|   |---------|
|-----------------------------|--------------------------------------|
|-----------------------------|--------------------------------------|
|-----------------------------|--------------------------------------|
|--0-0-0--0-0--0-0--0-0--0-0--|--8-8-8---8-8---8-8---8-8---8-8h10----|
|--0-0-0--0-0--0-0--0-0--0-0--|--8-8-8---8-8---8-8---8-8---8-8-------|
|--0-0-0--0-0--0-0--0-0--0-0--|--8-8-8---8-8---8-8---8-8---8-8-------|

     |--------------PM---------------------------------------------|
|-----------------------------|------------------------------------|
|-----------------------------|------------------------------------|
|-----------------------------|------------------------------------|
|--0-0-0--0-0--0-0--0-0--0-0--|--5-5-5--5----5----5----5--3--------|
|--0-0-0--0-0--0-0--0-0--0-0--|--5-5-5--5----5----5----5--3--------|
|--0-0-0--0-0--0-0--0-0--0-0--|--5-5-5--5----5----5----5--3--------|

Pre-Chorus Riff

Guitar 1--Wah
|----------------------------------------3x||-----------------|
|------------------------------------------||-----------------|
|------------------------------------------||--7---7-7---7-7--|
|------------------------------------------||--7---7-7---7-7--|
|------------------------------------------||--5---5-5---5-5--|
|-10-0-12-0-12-0-10-12-0-12-0-10-12-0-10-0-||--0---0-0---0-0--|
|
|guitar 2
|------------------------------------------||-----------------|
|------------------------------------------||-----------------|
|------------------------------------------||--7---7-7---7-7--|
|------------------------------------------||--7---7-7---7-7--|
|--3----5----5----3--5----5----3--5----3---||--5---5-5---5-5--|
|--0----0----0----0--0----0----0--0----0---||--0---0-0---0-0--|


CHORUS

|Guitar 1
|-----------------------------------|------------------------------------|
|-----------------------------------|------------------------------------|
|-----------------------------------|------------------------------------|
|--0--0--7-8--8--8\--3--3--3--5--5--|--0--0--7-8--8--8-/10--10-10--5--5--|
|--0--0--7-8--8--8\--3--3--3--5--5--|--0--0--7-8--8--8-/10--10-10--5--5--|
|--0--0--7-8--8--8\--3--3--3--5--5--|--0--0--7-8--8--8-/10--10-10--5--5--|
|
|Guitar 2
|-----------------------------------|------------------------------------|
|-----------------------------------|------------------------------------|
|--------------------5--5--5--4--4--|--------------------9---9--9--4--4--|
|--0--0--7-8--8--8\--x--x--x--x--x--|--0--0--7-8--8--8---x---x--x--x--x--|
|--0--0--7-8--8--8\--3--3--3--2--2--|--0--0--7-8--8--8---7---7--7--2--2--|
|--0--0--7-8--8--8\-----------------|--0--0--7-8--8--8-------------------|

|Guitar 1
|-----------------------------------|------------------------------------|
|-----------------------------------|------------------------------------|
|-----------------------------------|------------------------------------|
|--0--0--7-8--8--8\--3--3--3--5--5--|--0--0--7-8--8--8-/10--10-10--5--5--|
|--0--0--7-8--8--8\--3--3--3--5--5--|--0--0--7-8--8--8-/10--10-10--5--5--|
|--0--0--7-8--8--8\--3--3--3--5--5--|--0--0--7-8--8--8-/10--10-10--5--5--|
|
|Guitar 2
|-----------------------------------|------------------------------------|
|-----------------------------------|------------------------------------|
|--------------------5--5--5--4--4--|--------------------9---9--9-----x\-|
|--0--0--7-8--8--8\--x--x--x--x--x--|--0--0--7-8--8--8---x---x--x-----x\-|pick scrape
|--0--0--7-8--8--8\--3--3--3--2--2--|--0--0--7-8--8--8---7---7--7-----x\-|
|--0--0--7-8--8--8\-----------------|--0--0--7-8--8--8----------------x\-|

VERSE 2

    |--------------------------PM--------------------------------|
|-----------------------------|----------------------------------|
|-----------------------------|----------------------------------|
|-----------------------------|----------------------------------|
|--0-0-0--0-0--0-0--0-0--0-0--|--8-8-8--8-8--8-8--8-8--8-8/10----|
|--0-0-0--0-0--0-0--0-0--0-0--|--8-8-8--8-8--8-8--8-8--8-8/10----|
|--0-0-0--0-0--0-0--0-0--0-0--|--8-8-8--8-8--8-8--8-8--8-8/10----|

    |----------------------------PM-------------------------------------------|
|----------------------------------------|------------------------------------|
|----------------------------------------|------------------------------------|
|----------------------------------------|------------------------------------|
|--12-12-12--12-12--12-12--12-12--12-12--|--5-5-5--5-5--5-5--5-5--5-3---------|
|--12-12-12--12-12--12-12--12-12--12-12--|--5-5-5--5-5--5-5--5-5--5-3---------|
|--12-12-12--12-12--12-12--12-12--12-12--|--5-5-5--5-5--5-5--5-5--5-3---------|


Guitar 2
     |--------------PM----------------|   |-|   |-|  |-|   |---------|
|-----------------------------|--------------------------------------|
|-----------------------------|--------------------------------------|
|-----------------------------|--------------------------------------|
|--0-0-0--0-0--0-0--0-0--0-0--|--8-8-8---8-8---8-8---8-8---8-8h10----|
|--0-0-0--0-0--0-0--0-0--0-0--|--8-8-8---8-8---8-8---8-8---8-8-------|
|--0-0-0--0-0--0-0--0-0--0-0--|--8-8-8---8-8---8-8---8-8---8-8-------|

     |--------------PM---------------------------------------------|
|-----------------------------|------------------------------------|
|-----------------------------|------------------------------------|
|-----------------------------|------------------------------------|
|--0-0-0--0-0--0-0--0-0--0-0--|--5-5-7--7----7----7----7-----------|
|--0-0-0--0-0--0-0--0-0--0-0--|--5-5-5--5----5----5----5-----------|
|--0-0-0--0-0--0-0--0-0--0-0--|--5-5-5--5----5----5----5-----------|


----------------
Pre-Chorus Riff
----------------

---------
CHORUS 2
---------


Post-Chorus//Pre-Solo Riff

|--------------|-----------------|--------------|--------------------|
|--------------|-----------------|--------------|--------------------|
|--------------|-----------------|--------------|--------------------|
|--------3-----|-----------------|--------3-----|--------------------|
|----3h5----5--|--0--0--0-3h5p3--|----3h5----5--|--0--0--0-3---------|
|--0-----------|--0--0--0-3h5p3--|--0-----------|--0--0--0-3---------|
|
|--------------|-----------------|--------------|--------------------|
|--------------|-----------------|--------------|--------------------|
|--------------|-----------------|--------------|--------------------|
|--------3-----|-----------------|--------3-----|----------3~--------|
|--5p3p0----5--|--0--0--0-3h5p3--|--5p3p0----5--|--------------------|
|--------------|--0--0--0-3h5p3--|--------------|--0--0--0-----------|


SOLO— (rhythm plays chorus, guitar 1)

|-----------------------|-----------------------------------|
|-----------------------|-------13--------------------------|
|------------10h12p10---|--12^14--r12p10-12p10-12^14--10~~~-|
|-------10h12-----------|-----------------------------------|
|-/10h12----------------|-----------------------------------|
|-----------------------|-----------------------------------|

                                          |------x5-------------------|
|--10--13p10----10--------------------||------------------||----------|
|------------13----13p10-13p10----10--||*-------13-------*||----------|
|------------------------------12-----||---12^14--r12p10--||--12~~~---|
|-------------------------------------||------------------||----------|
|-------------------------------------||*----------------*||----------|
|-------------------------------------||------------------||----------|

|--------------------7--------------------------|
|----------------------10p7---7-----------------|
|--9-9^-9-7~~~--9^11--------9^*--9^-r9--7h9-7--/| * = bend to match pitch
|-----------------------------------------------|
|-----------------------------------------------|
|-----------------------------------------------|

|---------------------------------------------------------------------------|
|------------10h13p10--10---------------------------12-12-12----------------|
|-(7)/11--12--------------12^14r12-10----12----10~~-12-12-12—10~~-----------|
|-------------------------------------12----12------12-12-12----------------|
|-----------------------------------------------------------------12p10-12\-|
|---------------------------------------------------------------------------|

--------
Verse 3
--------

Pre-Chorus Riff #2

The last measure can be played the way I Have it, or you can just play octaves, and 
either guitar one or guitar two…****(see bottom of page)

Guitar 1--Wah
|----------------------------------------3x||----------------------|
|------------------------------------------||------------------6^--|
|------------------------------------------||--7---5---------------|
|------------------------------------------||----------7---6-------|
|------------------------------------------||----------------------|
|-10-0-12-0-12-0-10-12-0-12-0-10-12-0-10-0-||----------------------|
|
|guitar 2
|------------------------------------------||----------------------|
|------------------------------------------||----------------------|
|------------------------------------------||--7---7---------------|
|------------------------------------------||--7---5-----------3^--|
|--3----5----5----3--5----5----3--5----3---||--5---3-----------3~--|
|--0----0----0----0--0----0----0--0----0---||----------6---5---3~--|

---------
CHORUS 3
---------


(Post-Chorus Riff again)

|--------------|-----------------|--------------|--------------------|
|--------------|-----------------|--------------|--------------------|
|--------------|-----------------|--------------|--------------------|
|--------3-----|-----------------|--------3-----|--------------------|
|----3h5----5--|--0--0--0-3h5p3--|----3h5----5--|--0--0--0-3---------|
|--0-----------|--0--0--0-3h5p3--|--0-----------|--0--0--0-3---------|
|
|--------------|-----------------|--------------|--------------------|
|--------------|-----------------|--------------|--------------------|
|--------------|-----------------|--------------|--------------------|
|--------3-----|-----------------|--------3-----|----------3~--------|
|--5p3p0----5--|--0--0--0-3h5p3--|--5p3p0----5--|--------------------|
|--------------|--0--0--0-3h5p3--|--------------|--0--0--0-----------|


|-----|--------------------------------|
|-----|--------------------------------|
|-----|--------------------------------|
|-3^--|--0-----------------------------|
|-----|----3-/5--5-7--7-8--8-10-~----x\|
|-----|--------------------------------|
|
|-----|--------------------------------|
|-----|--------------------------------|
|-----|--------------------------------|
|-3^--|--------------------------------|
|-----|-------5--5-7--7-8--8-10---x\---|
|-----|--------------------------------|


Ending:
|----------------------------------|---------|
|----------------------------------|---------|
|----------------------------------|--7--7\--|
|----------------------------------|--7--7\--|
|--5-3-0-3-0-----------0-3-0-------|--5--5\--|
|------------5-3-0-3-5-------5-3-0-|--0--0---|


| /  slide up
| \  slide down
| h  hammer-on
| p  pull-off
| ~  vibrato
| +  harmonic
| x  Mute note
| ^ bend

^bend to pitch
12^14 means full bend--bend 12 to sound like 14


------------------------------------------------------------------------------

****Pre-Chorus Riff #2

The Rhythm is soft on certain parts, so the dissonance you will hear in the tabbed part 
not sound right, so while playing live you might not wanna play it like that, so instead 
could try something like this...

****
|----------------------|
|----------------------|
|-----------------P.H.-|
|----------------------|
|--5---3---------------|
|----------6---5---3^--|
|
|----------------------|
|----------------------|
|----------------------|
|------------------3^--|
|--5---3---------------|
|----------6---5-------|
****


===============================================================================
Добавлено: 24.03.2012
Другие материалы по этой песне:

Страница создана 24.03.2012
http://primanota.ru/black-stone-cherry/backwoods-gold-chords.htm
Привет, Гость.
Предлагаем пройти революционный курс по гитаре.
Подарок от PrimaNota.Ru, забирай!