PrimaNota.ru - самый крупный в мире бесплатный архив песенных текстов, аккордов, табулатур и нот


Black Star Riders - Finest Hour - таба, видео

Регистрация Запомнить меня
Войти через:  Facebook Google Twitter Vk Yandex Mail.ru

Black Star Riders - Finest Hour - таба, видео

Печатать
Просмотров: 67
Уроки эстрадного вокала в Санкт-Петербурге
Finest Hour - Black Star Riders
Tuning Half Step Down - Eb Ab Db Gb Bb eb
Tabbed By Derek Schmidt

Check out my page for video cover - http://www.hammerheadrocks.com/#!dereks-page/c11nt

Tab Key:
h - hammer on
p - pull off
b - bend
r - release
v - vibrato
= - hold note
PH - pinch harmonic
\ - slide down neck
/ - slide up neck
PM - palm mute

Intro: Guitar 1
e--3------2-----0---------------3-----2-----0--|
B--3------3-----0---------------3-----3-----0--|
G--0------2-----x---------------0-----2-----x--|
D--0------0-----2---------------0-----0-----2--|
A--2------------2---------------2-----------2--|
E--3------------0---------------3-----------0--| X2

Guitar 2
e----------------------------------------------------|
B----------------------------------------------------|
G--2h4-2-/4---2h4-2-/4---2h4-2-/4-/7-\4--2-4-2p0-----|
D----------------------------------------------------|
A----------------------------------------------------|
E----------------------------------------------------| X2

Verse: Acoustic Guitar will have a strum pattern through this progression
e--3------2-----0---------------3-----2-----0--|
B--3------3-----0---------------3-----3-----0--|
G--0------2-----x---------------0-----2-----x--|
D--0------0-----2---------------0-----0-----2--|
A--2------------2---------------2-----------2--|
E--3------------0---------------3-----------0--|
The distorted electric guitar will just hit the note


then the electric guitar kicks in
e--3-3-3-3-3-3-3-3-2-2-2-2-2-2-2-2-0-0-0-0-0-0-0-0-0-0-0-0-0-0-0-0--|
B--3-3-3-3-3-3-3-3-3-3-3-3-3-3-3-3-0-0-0-0-0-0-0-0-0-0-0-0-0-0-0-0--|
G--0-0-0-0-0-0-0-0-2-2-2-2-2-2-2-2-x-x-x-x-x-x-x-x-x-x-x-x-x-x-x-x--|
D--0-0-0-0-0-0-0-0-0-0-0-0-0-0-0-0-2-2-2-2-2-2-2-2-2-2-2-2-2-2-2-2--|
A--2-2-2-2-2-2-2-2-----------------2-2-2-2-2-2-2-2-2-2-2-2-2-2-2-2--|
E--3-3-3-3-3-3-3-3-----------------0-0-0-0-0-0-0-0-0-0-0-0-0-0-0-0--|
 |PM================================================================|

Pre Chorus: Both guitars
e------------------------------------------------------------------|
B------------------------------------------------------------------|
G--5-5-5-5-5-5-5-5-5-5-5-5-5-5-5-5-7-7-7-7-7-7-7-7-7-7-7-7-7-7-7-7-|
D--5-5-5-5-5-5-5-5-5-5-5-5-5-5-5-5-7-7-7-7-7-7-7-7-7-7-7-7-7-7-7-7-|
A--3-3-3-3-3-3-3-3-3-3-3-3-3-3-3-3-5-5-5-5-5-5-5-5-5-5-5-5-5-5-5-5-|
E---------------------------------|--------------------------------|
  |            16 notes           |            16 notes           |

Chorus: Guitar 1
e--3--3--2--2--3--3--3-3-3--------2--2--3--3--3-3-3--3--3--2--2--3-3---3-3-3--|
B--3--3--3--3--3--3--3-3-3--------3--3--3--3--3-3-3--3--3--3--3--3--3--3-3-3--|
G--0--0--2--2--0--0--0-0-0--------2--2--0--0--0-0-0--0--0--2--2--0--0--0-0-0--|
D--0--0--0--0--2--2--2-2-2--2--2--0--0--2--2--2-2-2--0--0--0--0--2--2--2-2-2--|
A--2--2--------3--3--3-3-3--2--2--------3--3--3-3-3--2--2--------3--3--3-3-3--|
E--3--3---------------------0--0---------------------3--3---------------------|

e-----------------------------------|
B-----------------------------------|
G--2-2-2-2-2-2-2-2-5-5-5-5-5-5-5-5--|
D--2-2-2-2-2-2-2-2-5-5-5-5-5-5-5-5--|
A--0-0-0-0-0-0-0-0-3-3-3-3-3-3-3-3--|
E-----------------------------------|

Guitar 2
e--3--3--2--2--3--3--3-3-3--------2--2--3--3----------3--3--2--2--3-3---3-3-3--|
B--3--3--3--3--3--3--3-3-3--------3--3--3--3----------3--3--3--3--3--3--3-3-3--|
G--0--0--2--2--0--0--0-0-0--------2--2--0--0----------0--0--2--2--0--0--0-0-0--|
D--0--0--0--0--2--2--2-2-2--2--2--0--0--2--2----------0--0--0--0--2--2--2-2-2--|
A--2--2--------3--3--3-3-3--2--2--------3--3--2-3-5-2-2--2--------3--3--3-3-3--|
E--3--3---------------------0--0----------------------3--3---------------------|

e-----------------------------------|
B-----------------------------------|
G--2-2-2-2-2-2-2-2-5-5-5-5-5-5-5-5--|
D--2-2-2-2-2-2-2-2-5-5-5-5-5-5-5-5--|
A--0-0-0-0-0-0-0-0-3-3-3-3-3-3-3-3--|
E-----------------------------------|


Intro again


Verse 2:
e--3-3-3-3-3-3-3-3-2-2-2-2-2-2-2-2-0-0-0-0-0-0-0-0-0-0-0-0-0-0-0-0--|
B--3-3-3-3-3-3-3-3-3-3-3-3-3-3-3-3-0-0-0-0-0-0-0-0-0-0-0-0-0-0-0-0--|
G--0-0-0-0-0-0-0-0-2-2-2-2-2-2-2-2-x-x-x-x-x-x-x-x-x-x-x-x-x-x-x-x--|
D--0-0-0-0-0-0-0-0-0-0-0-0-0-0-0-0-2-2-2-2-2-2-2-2-2-2-2-2-2-2-2-2--|
A--2-2-2-2-2-2-2-2-----------------2-2-2-2-2-2-2-2-2-2-2-2-2-2-2-2--|
E--3-3-3-3-3-3-3-3-----------------0-0-0-0-0-0-0-0-0-0-0-0-0-0-0-0--|
 |PM================================================================| X3


Pre Chorus: same as first


Chorus:  (do whole chorus twice)


Bridge:
e--0------3----3--3----0-----2--3---3-----|
B--0------3----3--3----0-----3--3---3--3--|
G--0------0----0--0----0-----2--0---0--2--|
D--2------0----2--0----2-----0--2---0--0--|
A--2------2----3--2----2--------3-2-2-----|
E--0------3-------3----0------------3-----|

Solo:
Rhythm guitar under solo
e-----------------------------------------------------------------------------|
B-----------------------------------------------------------------------------|
G-------------5------------------------5--2---------------5----------2--5--7--|
D--2----------5-----------2------------5--2--2------------5----------2--5--7--|
A--2--------0-3--3-0------2--------0-2-3--0--2--------0-2-3--3-0-----0--3--5--|
E--0--0-2-3----------3-2--0--0-2-3-----------0--0-2-3------------3-2----------|

Lead guitar
e--------------------------------------------------------|
B--3---3--3----------------------------------------8-----|
G--2b--2b-2b-2b-2b-2b-2brp0----------------7h9p7-9---9v--|
D---------------------------2---/5---5-7/9---------------|
A----------------------------------7---------------------|
E--------------------------------------------------------|

e-0-0-0-0-0-0-0-0-0-0-0-0-0--0--0--0--0--0--0--0--12--12--14--14--15--15--17--17--17---|
B-5-5-5-5/7-7-7-7/8-8-8-8/10-10-10-10/12-12-12-12-15b-15b-17b-17b-18b-18b-20b-20b-20br-|
G--------------------------------------------------------------------------------------|
D--------------------------------------------------------------------------------------|
A--------------------------------------------------------------------------------------|
E--------------------------------------------------------------------------------------|

Verse 3: both guitars
e--3------2-----0---------------3-----2-----0--|
B--3------3-----0---------------3-----3-----0--|
G--0------2-----x---------------0-----2-----x--|
D--0------0-----2---------------0-----0-----2--|
A--2------------2---------------2-----------2--|
E--3------------0---------------3-----------0--|

Then guitar kicks back in
e--3-3-3-3-3-3-3-3-2-2-2-2-2-2-2-2-0-0-0-0-0-0-0-0-0-0-0-0-0-0-0-0--|
B--3-3-3-3-3-3-3-3-3-3-3-3-3-3-3-3-0-0-0-0-0-0-0-0-0-0-0-0-0-0-0-0--|
G--0-0-0-0-0-0-0-0-2-2-2-2-2-2-2-2-x-x-x-x-x-x-x-x-x-x-x-x-x-x-x-x--|
D--0-0-0-0-0-0-0-0-0-0-0-0-0-0-0-0-2-2-2-2-2-2-2-2-2-2-2-2-2-2-2-2--|
A--2-2-2-2-2-2-2-2-----------------2-2-2-2-2-2-2-2-2-2-2-2-2-2-2-2--|
E--3-3-3-3-3-3-3-3-----------------0-0-0-0-0-0-0-0-0-0-0-0-0-0-0-0--|
 |PM================================================================|


Pre Chorus

Chorus: Guitar 1
e--3--3--2--2--3--3--3-3-3--------2--2--3--3--3-3-3--|
B--3--3--3--3--3--3--3-3-3--------3--3--3--3--3-3-3--|
G--0--0--2--2--0--0--0-0-0--------2--2--0--0--0-0-0--|
D--0--0--0--0--2--2--2-2-2--2--2--0--0--2--2--2-2-2--|
A--2--2--------3--3--3-3-3--2--2--------3--3--3-3-3--|
E--3--3---------------------0--0---------------------|X2


Guitar 2
e--3--3--2--2--3--3--3-3-3--------2--2--3--3----------|
B--3--3--3--3--3--3--3-3-3--------3--3--3--3----------|
G--0--0--2--2--0--0--0-0-0--------2--2--0--0----------|
D--0--0--0--0--2--2--2-2-2--2--2--0--0--2--2----------|
A--2--2--------3--3--3-3-3--2--2--------3--3--2-3-5-2-|
E--3--3---------------------0--0----------------------|X2

Guitar 1
e--3--3--2--2--3--3--3-3-3--------2--2--3--3--3-3-3--3--3--2--2--3-3---3-3-3--|
B--3--3--3--3--3--3--3-3-3--------3--3--3--3--3-3-3--3--3--3--3--3--3--3-3-3--|
G--0--0--2--2--0--0--0-0-0--------2--2--0--0--0-0-0--0--0--2--2--0--0--0-0-0--|
D--0--0--0--0--2--2--2-2-2--2--2--0--0--2--2--2-2-2--0--0--0--0--2--2--2-2-2--|
A--2--2--------3--3--3-3-3--2--2--------3--3--3-3-3--2--2--------3--3--3-3-3--|
E--3--3---------------------0--0---------------------3--3---------------------|

e--------------------------------------|
B--------------------------------------|
G--2-2-2-2-2-2-2-2-5-5-5-5-5-5-5-5--5--|
D--2-2-2-2-2-2-2-2-5-5-5-5-5-5-5-5--5--|
A--0-0-0-0-0-0-0-0-3-3-3-3-3-3-3-3--5--|
E-----------------------------------3--|

Guitar 2
e--3--3--2--2--3--3--3-3-3--------2--2--3--3----------3--3--2--2--3-3---3-3-3--|
B--3--3--3--3--3--3--3-3-3--------3--3--3--3----------3--3--3--3--3--3--3-3-3--|
G--0--0--2--2--0--0--0-0-0--------2--2--0--0----------0--0--2--2--0--0--0-0-0--|
D--0--0--0--0--2--2--2-2-2--2--2--0--0--2--2----------0--0--0--0--2--2--2-2-2--|
A--2--2--------3--3--3-3-3--2--2--------3--3--2-3-5-2-2--2--------3--3--3-3-3--|
E--3--3---------------------0--0----------------------3--3---------------------|

e--------------------------------------|
B--------------------------------------|
G--2-2-2-2-2-2-2-2-5-5-5-5-5-5-5-5-----|
D--2-2-2-2-2-2-2-2-5-5-5-5-5-5-5-5--5--|
A--0-0-0-0-0-0-0-0-3-3-3-3-3-3-3-3--5--|
E-----------------------------------3--|

during the last chorus one of the guitarist gets a slider and does something like this
e--------------|
B--15---17-12--|
G--------------|
D--------------|
A--------------|
E--------------|
Добавлено: 22.11.2015
Другие материалы по этой песне:
  • Аккорды и текст

Страница создана 22.11.2015
http://primanota.ru/black-star-riders/finest-hour-chords.htm
Привет, Гость.
Предлагаем пройти революционный курс по гитаре.
Подарок от PrimaNota.Ru, забирай!