PrimaNota.ru - самый крупный в мире бесплатный архив песенных текстов, аккордов, табулатур и нот


Black Spiders - Kiss Tried To Kill Me - таба, видео

Регистрация Запомнить меня
Войти через:  Facebook Google Twitter Vk Yandex Mail.ru

Black Spiders - Kiss Tried To Kill Me - таба, видео

Печатать
Просмотров: 132
Hi this is my first time tabbing!
I noticed that there are no Black Spiders Tabs so i decided to attempt to write my
own. Rate what you think I deserve

Song: Kiss Tried To Kill Me
Artist: Black Spiders
Tuning: E Standard

Sorry but this is only the rhythm guitar I couldn't figure out the lead parts

Intro (Riff 1 ):
Drum Solo...

E|-----------------------------------------------------------------------------------------|
B|-----------------------------------------------------------------------------------------|
G|-----------------------------------------------------------------------------------------|
D|--2--4--4--2--4--2--4--7--7--7--7--7--7--7--7--2--2--2--2--2--2--2--2--2--4--2--4--2--4--|
A|--2--4--4--2--4--2--4--7--7--7--7--7--7--7--7--2--2--2--2--2--2--2--2--2--4--2--4--2--4--|
E|--0--2--2--0--2--0--2--5--5--5--5--5--5--5--5--0--0--0--0--0--0--0--0--2--2--0--2--0--2--|

Do this twice

Riff 2:

E|--------------------------|
B|--------------------------|
G|--------------------------|
D|-2-4-4----7-7-2--2-2-4-4--|
A|-2-4-4----7-7-2--2-2-4-4--|
E|-0-2-2----5-5-0--0-0-2-2--|

repeat this 9 times

on the 10th time do this

E|------------------|
B|------------------|
G|------------------|
D|-2-4-4----7-7-2-2-|
A|-2-4-4----7-7-2-2-|
E|-0-2-2----5-5-0-0-|

Then go straight into Riff 3:

E|---------------------------------------------------------------------|
B|---------------------------------------------------------------------|
G|-4-4-4-4-4-4-4-4-4-2-2-2-2-2-2-2-2-2---------------------------------|
D|-4-4-4-4-4-4-4-4-4-2-2-2-2-2-2-2-2-2-2-2-2-2-2-2-2-2-2-4-4-2-4-4-2-4-|
A|-2-2-2-2-2-2-2-2-2/4-4-4-4-4-4-4-4-4-2-2-2-2-2-2-2-2-2-4-4-2-4-4-2-4-|
E|-------------------------------------0-0-0-0-0-0-0-0-0-2-2-0-2-2-0-2-|

and on the second time play this:

E|-------------------------------------------------------------------|
B|-------------------------------------------------------------------|
G|-4-4-4-4-4-4-4-4-2-2-2-2-2-2-2-2-6-6-6-6-6-6-6-6-6-6-6-6-6-6-4-2---|
D|-4-4-4-4-4-4-4-4-2-2-2-2-2-2-2-2-6-6-6-6-6-6-6-6-6-6-6-6-6-6-4-2-4-|
A|-2-2-2-2-2-2-2-2-0-0-0-0-0-0-0-0-4-4-4-4-4-4-4-4-4-4-4-4-4-4-2-0-4-|
E|-----------------------------------------------------------------2-|
which then goes back into riff 1 ( the chorus )

Key change:

E|-----------------------------------------------------------------|
B|-----------------------------------------------------------------|
G|-----------------------------------------------------------------|
D|-4-6-6-4-6-4-6-9-9-9-9-9-9-9-9--4-4-4-4-4-4-4-4-6-6--4-6----4-6--|
A|-4-6-6-4-6-4-6-9-9-9-9-9-9-9-9--4-4-4-4-4-4-4-4-6-6--4-6----4-6--|
E|---4-4---4---4-7-7-7-7-7-7-7-7------------------4-4----4------4--|
Добавлено: 06.11.2013
Вам также может быть интересно:
Другие материалы по этой песне:
  • Аккорды и текст

Страница создана 06.11.2013
http://primanota.ru/black-spiders/kiss-tried-to-kill-me-chords.htm
Привет, Гость.
Предлагаем пройти революционный курс по гитаре.
Подарок от PrimaNota.Ru, забирай!