PrimaNota.ru - самый крупный в мире бесплатный архив песенных текстов, аккордов, табулатур и нот


Black Skyline - Break Down The Shame - таба, видео

Регистрация Запомнить меня
Войти через:  Facebook Google Twitter Vk Yandex Mail.ru

Black Skyline - Break Down The Shame - таба, видео

Печатать
Просмотров: 76
Traccia 1
C#||-------|-------|
G#||-------|-------|
E ||-------|-------|
B ||-------|-------|
F#||-------|-------|
B ||-------|-------|


  E  E   E  E  E  E  E  E   
---------------------------|
---------------------------|
---------------------------|
---------------------------|
---------------------------|
--0--L--15--L--L--0-----0--|


  E  E  S S S S S S S S S S S S  
--------------------------------|
--------------------------------|
--------------------------------|
--------------------------------|
--------------------------------|
------------0-0-0-L---------0-0-|


  E  E   E  E  E  E  E  E   
---------------------------|
---------------------------|
---------------------------|
---------------------------|
---------------------------|
--0--L--15--L--L--0-----0--|


  E  S S S S S S S S  S S S S S S  
----------------------------------|
---------------------15-L-L-L-L-L-|
---------------------18-L-L-L-L-L-|
----------------------------------|
----------------------------------|
-----0-L-----0-0-0----------------|


  E  E   E  E  E  E  E  E   
---------------------------|
---------------------------|
---------------------------|
---------------------------|
---------------------------|
--0--L--15--L--L--0-----0--|


  E  E  S S S S S S S S S S S S  
--------------------------------|
--------------------------------|
--------------------------------|
--------------------------------|
--------------------------------|
------------0-0-0-----------0-0-|


  E  E   E  E  E  E  E  E   
---------------------------|
---------------------------|
---------------------------|
---------------------------|
---------------------------|
--0--L--15--L--L--0-----0--|


  E  E  E  E  E  E  E  E   
--------------------------|
--------------------------|
--------------------------|
--------------------------|
--3--0--------------------|
--------0--3--6--5--0--3--|


  E  E   E  E  E  E  E  E   
---------------------------|
---------------------------|
---------------------------|
---------------------------|
---------------------------|
--0--L--15--L--L--0-----0--|


  E  E  S S S S S S S S S S S S  
--------------------------------|
--------------------------------|
--------------------------------|
--------------------------------|
--------------------------------|
------------0-0-0-----------0-0-|


  E  E   E  E  E  E  E  E   
---------------------------|
---------------------------|
---------------------------|
---------------------------|
---------------------------|
--0--L--15--L--L--0-----0--|


  E  E  S S S S S S  S S S S S S  
---------------------------------|
--------------------15-L-L-L-L-L-|
--------------------18-L-L-L-L-L-|
---------------------------------|
---------------------------------|
-----0------3-3-3----------------|


  E  E   E  E  E  E  E  E   
---------------------------|
---------------------------|
---------------------------|
---------------------------|
---------------------------|
--0--L--15--L--L--0-----0--|


  E  E  S S S S S S S S S S S S  
--------------------------------|
--------------------------------|
--------------------------------|
--------------------------------|
--------------------------------|
------------0-0-0-----------0-0-|


  E  E   E  E  E  E  E  E   
---------------------------|
---------------------------|
---------------------------|
---------------------------|
---------------------------|
--0--L--15--L--L--0-----0--|


  E  E  E  E  E  E  E  E   
--------------------------|
--------------------------|
--------------------------|
--------------------------|
--3--0--------------------|
--------0--3--6--5--0--3--|


  S S S S S S S S S S S S S S S S  
----------------------------------|
----------------------------------|
----------------------------------|
----------------------------------|
----------------------------------|
--0-0-0---0---0-------0-0-0---0---|


  S S S S S S S S S S S S S S S S  
----------------------------------|
----------------------------------|
----------------------------------|
----------------------------------|
----------------------------------|
------0-0-0---0-------0-0-0---0---|


  S S S S S S S S S S S S S S S S  
----------------------------------|
----------------------------------|
----------------------------------|
----------------------------------|
----------------------------------|
--0-0-0---0---0-------0-0-0---0---|


  S S S S S S S S S S S S S S S S  
----------------------------------|
----------------------------------|
----------------------------------|
----------------------------------|
----------------------------------|
------0-0-0---0-------0-0-0---0---|


  S S S S S S S S S S S S S S S S  
----------------------------------|
----------------------------------|
----------------------------------|
----------------------------------|
----------------------------------|
--0-0-0---0---0-------0-0-0---0---|


  S S S S S S S S S S S S S S S S  
----------------------------------|
----------------------------------|
----------------------------------|
----------------------------------|
----------------------------------|
------0-0-0---0-------0-0-0---0---|


  S S S S S S S S S S S S S S S S       
----------------------------------|----|
----------------------------------|----|
----------------------------------|----|
----------------------------------|----|
----------------------------------|----|
--0-0-0---0---0-------0-0-0---0---|----|


  S S S S S S S S S S S S S S S S  
----------------------------------|
----------------------------------|
----------------------------------|
----------------------------------|
----------------------------------|
--0-0-0---0---0-------0-0-0---0---|


  S S S S S S S S S S S S S S S S  
----------------------------------|
----------------------------------|
----------------------------------|
----------------------------------|
----------------------------------|
------0-0-0---0-------0-0-0---0---|


  S S S S S S S S S S S S S S S S  
----------------------------------|
----------------------------------|
----------------------------------|
----------------------------------|
----------------------------------|
--0-0-0---0---0-------0-0-0---0---|


  E  E  E  E  E  E  E  E   
--------------------------|
--------------------------|
--------------------------|
--------------------------|
--3--0--------------------|
--------0--3--7--6--0--3--|


  S S S S S S S S S S S S S S S S  
----------------------------------|
----------------------------------|
----------------------------------|
----------------------------------|
----------------------------------|
--0-0-0---0---0-------0-0-3---0---|


  S S S S S S S S S S S S S S S S  
----------------------------------|
----------------------------------|
----------------------------------|
----------------------------------|
----------------------------------|
------0-0-0---0-------0-0-0---0---|


  S S S S S S S S S S S S S S S S  
----------------------------------|
----------------------------------|
----------------------------------|
----------------------------------|
----------------------------------|
--0-0-0---0---0-------0-0-3---0---|


  E  E  E  E  E  E   E  E   
---------------------------|
---------------------------|
---------------------------|
---------------------------|
--3--0---------------------|
--------0--3--7--6b--L--L--|


  S S S S S S S S S S S S S S S S  
----------------------------------|
----------------------------------|
----------------------------------|
----------------------------------|
----------------------------------|
--0-0-0---0---0-------0-0-0---0---|


  S S S S S S S S S S S S S S S S  
----------------------------------|
----------------------------------|
----------------------------------|
----------------------------------|
----------------------------------|
------0-0-0---0-------0-0-0---0---|


  S S S S S S S S S S S S S S S S  
----------------------------------|
----------------------------------|
----------------------------------|
----------------------------------|
----------------------------------|
--0-0-0---0---0-------0-0-0---0---|


  E  E  E  E  E  E  E  E   
--------------------------|
--------------------------|
--------------------------|
--------------------------|
--3--0--------------------|
--------0--3--7--6--0--3--|


  S S S S S S S S S S S S S S S S  
----------------------------------|
----------------------------------|
----------------------------------|
----------------------------------|
----------------------------------|
--0-0-0---0---0-------0-0-0---0---|


  S S S S S S S S S S S S S S S S  
----------------------------------|
----------------------------------|
----------------------------------|
----------------------------------|
----------------------------------|
------0-0-0---0-------0-0-0---0---|


  S S S S S S S S S S S S S S S S  
----------------------------------|
----------------------------------|
----------------------------------|
----------------------------------|
----------------------------------|
--0-0-0---0---0-------0-0-0---0---|


  E  E  E  E  E  E  E  E   
--------------------------|
--------------------------|
--------------------------|
--------------------------|
--3--0--------------------|
--------0--3--7--6--0--3--|


  E  E  E  E  E  E  E  E   
--------------------------|
--------------------------|
--------------------------|
--2--2--2--2--2--2--2--2--|
--3--3--3--3--3--3--3--3--|
--------------------------|


  E  E  E  E  E  E  E  E   
--------------------------|
--------------------------|
--------------------------|
-----4--4--4--4--4--4--4--|
-----5--5--5--5--5--5--5--|
--------------------------|


  E  E  E  E  E  E  E  E   
--------------------------|
--------------------------|
--------------------------|
-----5--5--5--5--5--5--5--|
-----7--7--7--7--7--7--7--|
--------------------------|


  E   E   E   E   E   E   E   E   
---------------------------------|
---------------------------------|
---------------------------------|
------9---9---9---9---9---9---9--|
-----10--10--10--10--10--10--10--|
---------------------------------|


  E  E  E  E  E  E  E  E   
--------------------------|
--------------------------|
--------------------------|
--2--2--2--2--2--2--2--2--|
--3--3--3--3--3--3--3--3--|
--------------------------|


  E  E  E  E  E  E  E  E   
--------------------------|
--------------------------|
--------------------------|
-----4--4--4--4--4--4--4--|
-----5--5--5--5--5--5--5--|
--------------------------|


  E  E  E  E  E  E  E  E   
--------------------------|
--------------------------|
--------------------------|
-----5--5--5--5--5--5--5--|
-----7--7--7--7--7--7--7--|
--------------------------|


  E   E   E   E   E   E   E   E   
---------------------------------|
---------------------------------|
---------------------------------|
------9---9---9---9---9---9---9--|
-----10--10--10--10--10--10--10--|
---------------------------------|


  E  E  E  E  E  E  E  E   
--------------------------|
--------------------------|
--------------------------|
--2--2--2--2--2--2--2--2--|
--3--3--3--3--3--3--3--3--|
--------------------------|


  E  E  E  E  E  E  E  E   
--------------------------|
--------------------------|
--------------------------|
-----4--4--4--4--4--4--4--|
-----5--5--5--5--5--5--5--|
--------------------------|


  E  E  E  E  E  E  E  E   
--------------------------|
--------------------------|
--------------------------|
-----5--5--5--5--5--5--5--|
-----7--7--7--7--7--7--7--|
--------------------------|


  E   E   E   E   E   E   E   E   
---------------------------------|
---------------------------------|
---------------------------------|
------9---9---9---9---9---9---9--|
-----10--10--10--10--10--10--10--|
---------------------------------|


  E  E  E  E  E  E  E  E   
--------------------------|
--------------------------|
--------------------------|
--2--2--2--2--2--2--2--2--|
--3--3--3--3--3--3--3--3--|
--------------------------|


  E  E  E  E  E  E  E  E   
--------------------------|
--------------------------|
--------------------------|
-----4--4--4--4--4--4--4--|
-----5--5--5--5--5--5--5--|
--------------------------|


  E  E  E  E  E  E  E  E   
--------------------------|
--------------------------|
--------------------------|
-----5--5--5--5--5--5--5--|
-----7--7--7--7--7--7--7--|
--------------------------|


  E   E   E   E   E   E  E  E   
-------------------------------|
---------------------15-----L--|
---------------------18-----L--|
------9---9---9---9------------|
-----10--10--10--10------------|
-------------------------------|


  E  E   E  E  E  E  E  E   
---------------------------|
---------------------------|
---------------------------|
---------------------------|
---------------------------|
--0--L--15--L--L--0-----0--|


  E  E  S S S S S S S S S S S S  
--------------------------------|
--------------------------------|
--------------------------------|
--------------------------------|
--------------------------------|
------------0-0-0-----------0-0-|


  E  E   E  E  E  E  E  E   
---------------------------|
---------------------------|
---------------------------|
---------------------------|
---------------------------|
--0--L--15--L--L--0-----0--|


  E  E  S S S S S S  S S S S S S  
---------------------------------|
--------------------15-L-L-L-L-L-|
--------------------18-L-L-L-L-L-|
---------------------------------|
---------------------------------|
-----0------0-0-0----------------|


  E  E   E  E  E  E  E  E   
---------------------------|
---------------------------|
---------------------------|
---------------------------|
---------------------------|
--0--L--15--L--L--0-----0--|


  E  E  S S S S S S S S S S S S  
--------------------------------|
--------------------------------|
--------------------------------|
--------------------------------|
--------------------------------|
------------0-0-0-----------0-0-|


  E  E   E  E  E  E  E  E   
---------------------------|
---------------------------|
---------------------------|
---------------------------|
---------------------------|
--0--L--15--L--L--0-----0--|


  E  E  E  E  E  E  E  E   
--------------------------|
--------------------------|
--------------------------|
--------------------------|
--3--0--------------------|
--------0--3--6--5--0--3--|


  S S S S S S S S S S S S S S S S  
----------------------------------|
----------------------------------|
----------------------------------|
----------------------------------|
----------------------------------|
--0-0-0---0---0-------0-0-0---0---|


  S S S S S S S S S S S S S S S S  
----------------------------------|
----------------------------------|
----------------------------------|
----------------------------------|
----------------------------------|
------0-0-0---0-------0-0-0---0---|


  S S S S S S S S S S S S S S S S  
----------------------------------|
----------------------------------|
----------------------------------|
----------------------------------|
----------------------------------|
--0-0-0---0---0-------0-0-0---0---|


  E  E  E  E  E  E  E  E   
--------------------------|
--------------------------|
--------------------------|
--------------------------|
--3--0--------------------|
--------0--3--7--6--0--3--|


  S S S S S S S S S S S S S S S S  
----------------------------------|
----------------------------------|
----------------------------------|
----------------------------------|
----------------------------------|
--0-0-0---0---0-------0-0-3---0---|


  S S S S S S S S S S S S S S S S  
----------------------------------|
----------------------------------|
----------------------------------|
----------------------------------|
----------------------------------|
------0-0-0---0-------0-0-0---0---|


  S S S S S S S S S S S S S S S S  
----------------------------------|
----------------------------------|
----------------------------------|
----------------------------------|
----------------------------------|
--0-0-0---0---0-------0-0-3---0---|


  E  E  E  E  E  E   E  E   
---------------------------|
---------------------------|
---------------------------|
---------------------------|
--3--0---------------------|
--------0--3--7--6b--L--L--|


  S S S S S S S S S S S S S S S S  
----------------------------------|
----------------------------------|
----------------------------------|
----------------------------------|
----------------------------------|
--0-0-0---0---0-------0-0-0---0---|


  S S S S S S S S S S S S S S S S  
----------------------------------|
----------------------------------|
----------------------------------|
----------------------------------|
----------------------------------|
------0-0-0---0-------0-0-0---0---|


  S S S S S S S S S S S S S S S S  
----------------------------------|
----------------------------------|
----------------------------------|
----------------------------------|
----------------------------------|
--0-0-0---0---0-------0-0-0---0---|


  E  E  E  E  E  E  E  E   
--------------------------|
--------------------------|
--------------------------|
--------------------------|
--3--0--------------------|
--------0--3--7--6--0--3--|


  S S S S S S S S S S S S S S S S  
----------------------------------|
----------------------------------|
----------------------------------|
----------------------------------|
----------------------------------|
--0-0-0---0---0-------0-0-0---0---|


  S S S S S S S S S S S S S S S S  
----------------------------------|
----------------------------------|
----------------------------------|
----------------------------------|
----------------------------------|
------0-0-0---0-------0-0-0---0---|


  S S S S S S S S S S S S S S S S  
----------------------------------|
----------------------------------|
----------------------------------|
----------------------------------|
----------------------------------|
--0-0-0---0---0-------0-0-0---0---|


  E  E  E  E  E  E  E  E   
--------------------------|
--------------------------|
--------------------------|
--------------------------|
--3--0--------------------|
--------0--3--7--6--0--3--|


  E  E  E  E  E  E  E  E   
--------------------------|
--------------------------|
--------------------------|
--2--2--2--2--2--2--2--2--|
--3--3--3--3--3--3--3--3--|
--------------------------|


  E  E  E  E  E  E  E  E   
--------------------------|
--------------------------|
--------------------------|
-----4--4--4--4--4--4--4--|
-----5--5--5--5--5--5--5--|
--------------------------|


  E  E  E  E  E  E  E  E   
--------------------------|
--------------------------|
--------------------------|
-----5--5--5--5--5--5--5--|
-----7--7--7--7--7--7--7--|
--------------------------|


  E   E   E   E   E   E   E   E   
---------------------------------|
---------------------------------|
---------------------------------|
------9---9---9---9---9---9---9--|
-----10--10--10--10--10--10--10--|
---------------------------------|


  E  E  E  E  E  E  E  E   
--------------------------|
--------------------------|
--------------------------|
--2--2--2--2--2--2--2--2--|
--3--3--3--3--3--3--3--3--|
--------------------------|


  E  E  E  E  E  E  E  E   
--------------------------|
--------------------------|
--------------------------|
-----4--4--4--4--4--4--4--|
-----5--5--5--5--5--5--5--|
--------------------------|


  E  E  E  E  E  E  E  E   
--------------------------|
--------------------------|
--------------------------|
-----5--5--5--5--5--5--5--|
-----7--7--7--7--7--7--7--|
--------------------------|


  E   E   E   E   E   E   E   E   
---------------------------------|
---------------------------------|
---------------------------------|
------9---9---9---9---9---9---9--|
-----10--10--10--10--10--10--10--|
---------------------------------|


  E  E  E  E  E  E  E  E   
--------------------------|
--------------------------|
--------------------------|
--2--2--2--2--2--2--2--2--|
--3--3--3--3--3--3--3--3--|
--------------------------|


  E  E  E  E  E  E  E  E   
--------------------------|
--------------------------|
--------------------------|
-----4--4--4--4--4--4--4--|
-----5--5--5--5--5--5--5--|
--------------------------|


  E  E  E  E  E  E  E  E   
--------------------------|
--------------------------|
--------------------------|
-----5--5--5--5--5--5--5--|
-----7--7--7--7--7--7--7--|
--------------------------|


  E   E   E   E   E   E   E   E   
---------------------------------|
---------------------------------|
---------------------------------|
------9---9---9---9---9---9---9--|
-----10--10--10--10--10--10--10--|
---------------------------------|


  E  E  E  E  E  E  E  E   
--------------------------|
--------------------------|
--------------------------|
--2--2--2--2--2--2--2--2--|
--3--3--3--3--3--3--3--3--|
--------------------------|


  E  E  E  E  E  E  E  E   
--------------------------|
--------------------------|
--------------------------|
-----4--4--4--4--4--4--4--|
-----5--5--5--5--5--5--5--|
--------------------------|


  E  E  E  E  E  E  E  E   
--------------------------|
--------------------------|
--------------------------|
-----5--5--5--5--5--5--5--|
-----7--7--7--7--7--7--7--|
--------------------------|


  E   E   E   E   E   E  E  E   
-------------------------------|
---------------------15-----L--|
---------------------18-----L--|
------9---9---9---9------------|
-----10--10--10--10------------|
-------------------------------|


  W                   W                 
-------------------|-------------------|
-------------------|-------------------|
-------------------|-------------------|
-------------------|-------------------|
--0----------------|--L----------------|
--0----------------|--L----------------|


                               PM         
  W                   H        E  Q.      
-------------------|---------------------|
-------------------|---------------------|
-------------------|---------------------|
-------------------|---------------------|
--L----------------|--L--------0--6------|
--L----------------|--L--------0--6------|


  W                   W                 
-------------------|-------------------|
-------------------|-------------------|
-------------------|-------------------|
-------------------|-------------------|
--0----------------|--L----------------|
--0----------------|--L----------------|


  W                                     
-------------------|-------------------|
-------------------|-------------------|
-------------------|-------------------|
-------------------|-------------------|
--L----------------|-------------------|
--L----------------|-------------------|


  S S E  E  S S S S S S S S S S  
--------------------------------|
--------------------------------|
--------------------------------|
--------------------------------|
--------------------------------|
--0-L-------0-0-0---0-----------|


  S S S S S S S S S S S S S S S S  
----------------------------------|
----------------------------------|
----------------------------------|
----------------------------------|
----------------------------------|
------0-------0-------0-------0---|


  S S E  E  S S S S S S S S S S  
--------------------------------|
--------------------------------|
--------------------------------|
--------------------------------|
--------------------------------|
--0-L-------0-0-0---0-----------|


  S S S S S S S S S S S S S S S S  
----------------------------------|
----------------------------------|
----------------------------------|
----------------------------------|
----------------------------------|
------0-------0-------0-0-0-0-0-0-|


  S S E  E  S S S S S S S S S S  
--------------------------------|
--------------------------------|
--------------------------------|
--------------------------------|
--------------------------------|
--0-L-------0-0-0---0-----------|


  S S S S S S S S S S S S S S S S  
----------------------------------|
----------------------------------|
----------------------------------|
----------------------------------|
----------------------------------|
------0-------0-------0-------0---|


  S S E  E  S S S S S S S S S S  
--------------------------------|
--------------------------------|
--------------------------------|
--------------------------------|
--------------------------------|
--0-L-------0-0-0---0-----------|


  E  E  E  E  E  E  E  E   
--------------------------|
--------------------------|
--------------------------|
--------------------------|
--0-----------------------|
--0-----------------------|


  S S E  E  S S S S S S S S S S  
--------------------------------|
--------------------------------|
--------------------------------|
--------------------------------|
--------------------------------|
--0-L-------0-0-0---0-----------|


  S S S S S S S S S S S S S S S S  
----------------------------------|
----------------------------------|
----------------------------------|
----------------------------------|
----------------------------------|
------0-------0-------0-------0---|


  S S E  E  S S S S S S S S S S  
--------------------------------|
--------------------------------|
--------------------------------|
--------------------------------|
--------------------------------|
--0-L-------0-0-0---0-----------|


  S S S S S S S S S S S S S S S S  
----------------------------------|
----------------------------------|
----------------------------------|
----------------------------------|
----------------------------------|
------0-------0-------0-0-0-0-0-0-|


  S S E  E  S S S S S S S S S S  
--------------------------------|
--------------------------------|
--------------------------------|
--------------------------------|
--------------------------------|
--0-L-------0-0-0---0-----------|


  S S S S S S S S S S S S S S S S  
----------------------------------|
----------------------------------|
----------------------------------|
----------------------------------|
----------------------------------|
------0-------0-------0-------0---|


  S S E  E  S S S S S S S S S S  
--------------------------------|
--------------------------------|
--------------------------------|
--------------------------------|
--------------------------------|
--0-L-------0-0-0---0-----------|


  |----3----|    |----3----|     
  Q    Q    Q    Q    Q    Q     
--------------------------------|
--------------------------------|
--------------------------------|
--7----7----7----5----3----3----|
--5----5----5----5----3----3----|
--------------------------------|


  E  E  E  E  E  E  E  E   
--------------------------|
--------------------------|
--------------------------|
--2--2--2--2--2--2--2--2--|
--3--3--3--3--3--3--3--3--|
--------------------------|


  E  E  E  E  E  E  E  E   
--------------------------|
--------------------------|
--------------------------|
-----4--4--4--4--4--4--4--|
-----5--5--5--5--5--5--5--|
--------------------------|


  E  E  E  E  E  E  E  E   
--------------------------|
--------------------------|
--------------------------|
-----5--5--5--5--5--5--5--|
-----7--7--7--7--7--7--7--|
--------------------------|


  E   E   E   E   E   E   E   E   
---------------------------------|
---------------------------------|
---------------------------------|
------9---9---9---9---9---9---9--|
-----10--10--10--10--10--10--10--|
---------------------------------|


  E  E  E  E  E  E  E  E   
--------------------------|
--------------------------|
--------------------------|
--2--2--2--2--2--2--2--2--|
--3--3--3--3--3--3--3--3--|
--------------------------|


  E  E  E  E  E  E  E  E   
--------------------------|
--------------------------|
--------------------------|
-----4--4--4--4--4--4--4--|
-----5--5--5--5--5--5--5--|
--------------------------|


  E  E  E  E  E  E  E  E   
--------------------------|
--------------------------|
--------------------------|
-----5--5--5--5--5--5--5--|
-----7--7--7--7--7--7--7--|
--------------------------|


  E   E   E   E   E   E   E   E   
---------------------------------|
---------------------------------|
---------------------------------|
------9---9---9---9---9---9---9--|
-----10--10--10--10--10--10--10--|
---------------------------------|


  E  E  E  E  E  E  E  E   
--------------------------|
--------------------------|
--------------------------|
--2--2--2--2--2--2--2--2--|
--3--3--3--3--3--3--3--3--|
--------------------------|


  E  E  E  E  E  E  E  E   
--------------------------|
--------------------------|
--------------------------|
-----4--4--4--4--4--4--4--|
-----5--5--5--5--5--5--5--|
--------------------------|


  E  E  E  E  E  E  E  E   
--------------------------|
--------------------------|
--------------------------|
-----5--5--5--5--5--5--5--|
-----7--7--7--7--7--7--7--|
--------------------------|


  E   E   E   E   E   E   E   E   
---------------------------------|
---------------------------------|
---------------------------------|
------9---9---9---9---9---9---9--|
-----10--10--10--10--10--10--10--|
---------------------------------|


  E  E  E  E  E  E  E  E   
--------------------------|
--------------------------|
--------------------------|
--2--2--2--2--2--2--2--2--|
--3--3--3--3--3--3--3--3--|
--------------------------|


  E  E  E  E  E  E  E  E   
--------------------------|
--------------------------|
--------------------------|
-----4--4--4--4--4--4--4--|
-----5--5--5--5--5--5--5--|
--------------------------|


  E  E  E  E  E  E  E  E   
--------------------------|
--------------------------|
--------------------------|
-----5--5--5--5--5--5--5--|
-----7--7--7--7--7--7--7--|
--------------------------|


  E   E   E   E   E   E  E  E   
-------------------------------|
-------------------------------|
-------------------------------|
------9---9---9---9---9--L--L--|
-----10--10--10--10--10--L--L--|
-------------------------------|


  E  E  E  E  E  E  E  E   
--------------------------|
--------------------------|
--------------------------|
--2--2--2--2--2--2--2--2--|
--3--3--3--3--3--3--3--3--|
--------------------------|


  E  E  E  E  E  E  E  E   
--------------------------|
--------------------------|
--------------------------|
-----4--4--4--4--4--4--4--|
-----5--5--5--5--5--5--5--|
--------------------------|


  E  E  E  E  E  E  E  E   
--------------------------|
--------------------------|
--------------------------|
-----5--5--5--5--5--5--5--|
-----7--7--7--7--7--7--7--|
--------------------------|


  E   E   E   E   E   E   E   E   
---------------------------------|
---------------------------------|
---------------------------------|
------9---9---9---9---9---9---9--|
-----10--10--10--10--10--10--10--|
---------------------------------|


  E  E  E  E  E  E  E  E   
--------------------------|
--------------------------|
--------------------------|
--2--2--2--2--2--2--2--2--|
--3--3--3--3--3--3--3--3--|
--------------------------|


  E  E  E  E  E  E  E  E   
--------------------------|
--------------------------|
--------------------------|
-----4--4--4--4--4--4--4--|
-----5--5--5--5--5--5--5--|
--------------------------|


  E  E  E  E  E  E  E  E   
--------------------------|
--------------------------|
--------------------------|
-----5--5--5--5--5--5--5--|
-----7--7--7--7--7--7--7--|
--------------------------|


  E   E   E   E   E   E   E   E   
---------------------------------|
---------------------------------|
---------------------------------|
------9---9---9---9---9---9---9--|
-----10--10--10--10--10--10--10--|
---------------------------------|


  E  E  E  E  E  E  E  E   
--------------------------|
--------------------------|
--------------------------|
--2--2--2--2--2--2--2--2--|
--3--3--3--3--3--3--3--3--|
--------------------------|


  E  E  E  E  E  E  E  E   
--------------------------|
--------------------------|
--------------------------|
-----4--4--4--4--4--4--4--|
-----5--5--5--5--5--5--5--|
--------------------------|


  E  E  E  E  E  E  E  E   
--------------------------|
--------------------------|
--------------------------|
-----5--5--5--5--5--5--5--|
-----7--7--7--7--7--7--7--|
--------------------------|


  E   E   E   E   E   E   E   E   
---------------------------------|
---------------------------------|
---------------------------------|
------9---9---9---9---9---9---9--|
-----10--10--10--10--10--10--10--|
---------------------------------|


  E  E  E  E  E  E  E  E   
--------------------------|
--------------------------|
--------------------------|
--2--2--2--2--2--2--2--2--|
--3--3--3--3--3--3--3--3--|
--------------------------|


  E  E  E  E  E  E  E  E   
--------------------------|
--------------------------|
--------------------------|
-----4--4--4--4--4--4--4--|
-----5--5--5--5--5--5--5--|
--------------------------|


  E  E  E  E  E  E  E  E   
--------------------------|
--------------------------|
--------------------------|
-----5--5--5--5--5--5--5--|
-----7--7--7--7--7--7--7--|
--------------------------|


  E   E   E   E   E   E  E  E   
-------------------------------|
---------------------15-----L--|
---------------------18-----L--|
------9---9---9---9------------|
-----10--10--10--10------------|
-------------------------------|


  E  E   E  E  E  E  E  E   
---------------------------|
---------------------------|
---------------------------|
---------------------------|
---------------------------|
--0--L--15--L--L--0-----0--|


  E  E  S S S S S S S S S S S S  
--------------------------------|
--------------------------------|
--------------------------------|
--------------------------------|
--------------------------------|
------------0-0-0-L---------0-0-|


  E  E   E  E  E  E  E  E   
---------------------------|
---------------------------|
---------------------------|
---------------------------|
---------------------------|
--0--L--15--L--L--0-----0--|


  E  E  S S S S S S  S S S S S S   
---------------------------------||
--------------------15-L-L-L-L-L-||
--------------------18-L-L-L-L-L-||
---------------------------------||
---------------------------------||
-----0------3-3-3----------------||




Duration Legend
---------------
W - whole
H - half
Q - quarter
E - 8th
S - 16th
T - 32nd
X - 64th
. - note dotted
|-n-|  - n-tuplets


Tablature Legend
----------------
L - tied note
x - dead note
g - grace note
(n) - ghost note
> - accentuded note
NH - natural harmonic
AH - artificial harmonic
TH - tapped harmonic
SH - semi harmonic
PH - pitch harmonic
h - hammer on
p - pull off
b - bend
br - bendRelease
pb - preBend
pbr - preBendRelease
brb - bendReleaseBend
\n/ - tremolo bar dip
\n - tremolo bar dive
-/n - tremolo bar Release up
/n\ - tremolo bar inverted dip
/n - tremolo bar return
-\n - tremolo bar Release down
S - shift slide
s - legato slide
/ -  slide into from below or out of upwards
\ -  slide into from above or out of downwards
~ - vibrato
W - wide vibrato
tr - trill
TP - tremolo picking
T - tapping
S - slap
P - pop
< - fade in
^ - brush up
v - brush down

https://www.facebook.com/blackskylineband
Добавлено: 14.07.2013
Вам также может быть интересно:
Другие материалы по этой песне:
  • Аккорды и текст

Страница создана 14.07.2013
http://primanota.ru/black-skyline/break-down-the-shame-chords.htm
Привет, Гость.
Предлагаем пройти революционный курс по гитаре.
Подарок от PrimaNota.Ru, забирай!