PrimaNota.ru - самый крупный в мире бесплатный архив песенных текстов, аккордов, табулатур и нот


Black Sheep - Reste La - таба, видео

Регистрация Запомнить меня
Войти через:  Facebook Google Twitter Vk Yandex Mail.ru

Black Sheep - Reste La - таба, видео

Печатать
Просмотров: 153
Уроки эстрадного вокала в Санкт-Петербурге
-------------------------------------------------------------------------------
                             RESTE LÀ - Black Sheep
-------------------------------------------------------------------------------
Tabbed by: jvdaele; march 15, 2010
Email: jvdaele@gmail.com

Tuning: standard

e|---------------------------------------------------------------------------|
B|---------------------------------------------------------------------------|
G|--1111--111212--121111--111212--12-----------------------------------------|
D|--x-x---x-x-x---x-x-x---x-x-x---x-1111--111212--121010--101010--10---------|
A|--9-9---9-1010--109-9---9-1010--10x-x---x-x-x---x-x-x---x-x-x---x----------|
E|----------------------------------9-9---9-1010--108-8---8-8-8---8----------|

                                                    drum comes in
                                                    P.M|
e|---------------------------------------------------------------------------|
B|---------------------------------------------------------------------------|
G|--1111--111212--121111--111212--12-----------------------------------------|
D|--x-x---x-x-x---x-x-x---x-x-x---x-1111--111212--121010--10-----------------|
A|--9-9---9-1010--109-9---9-1010--10x-x---x-x-x---x-x-x---x------------------|
E|----------------------------------9-9---9-1010--108-8---8------------------|

00:09 - sligthly different, only “lead” guitar tabbed, play twice
e|---------------------------------------------------------------------------|
B|---------------------------------------------------------------------------|
G|--1111--111212--121111--111212--12-----------------------------------------|
D|--x-x---x-x-x---x-x-x---x-x-x---x-1111--111111--111010--101010--10---------|
A|--9-9---9-1010--109-9---9-1010--101111--111111--111010--101010--10---------|
E|----------------------------------9-9---9-9-9---8-8--8--8-8--8--8----------|

00:18 - vocals…
        P.M--------|    P.M----------------------------------------------------|
e|-----------------------------------------------------------------------------|
B|-----------------------------------------------------------------------------|
G|--11--11111111111111--1111111111x--------------------------------------------|
D|--11--11111111111111--1111111111x-11--1111111111x-10--101010101010x----------|
A|--9---9-9-9-9-9-9-9---9-9-9-9-9-x-11--1111111111x-10--101010101010x----------|
E|----------------------------------9---9-9-9-9-9-x-8---8-8-8-8-8-8-x----------|

        P.M--------|    P.M------|          P.M--------------------------------|
e|-----------------------------------------------------------------------------|
B|-----------------------------------------------------------------------------|
G|--11--11111111111111--1111111111---------------------------------------------|
D|--11--11111111111111--1111111111----11------4--------------------------------|
A|--9---9-9-9-9-9-9-9---9-9-9-9-9-----11----4-4--------------------------------|
E|------------------------------------9-----2-2--------------------------------|

00:28 - play twice            second time add
e|--------------------------|------------------------------------------------|
B|--------------------------|------------------------------------------------|
G|----------7---------------|--11--------------------------------------------|
D|--4-------7-------9-------|--x---------------------------------------------|
A|--4-------5-------9-------|--9---------------------------------------------|
E|--2---------------7-------|------------------------------------------------|

00:44 - clean, repeat this one chord, “si tu savais… “
e|--2---------------------------------------------------------------------------|
B|--2---------------------------------------------------------------------------|
G|--3---------------------------------------------------------------------------|
D|--4---------------------------------------------------------------------------|
A|--4---------------------------------------------------------------------------|
E|--2---------------------------------------------------------------------------|

e|---------------------------------------------------------------------------|
B|---------------------------------------------------------------------------|
G|------9-------9-------9-------9-----------------------------11--11---------|
D|--x-x-9---x-x-9---x-x-9---x-x-9-------10------10------10--x-11--11---------|
A|--x-x-7---x-x-7---x-x-7---x-x-7---x-x-10--x-x-10--x-x-10--x-9---9----------|
E|----------------------------------x-x-8---x-x-8---x-x-8--------------------|

e|---------------------------------------------------------------------------|
B|---------------------------------------------------------------------------|
G|------11------11------11------11-------------------------------------------|
D|----x-11--x-x-11--x-x-11--x-x-11------12------12------12------12-----------|
A|----x-9---x-x-9---x-x-9---x-x-9---x-x-12--x-x-12--x-x-12--x-x-12-----------|
E|----------------------------------x-x-10--x-x-10--x-x-10--x-x-10-----------|

e|---------------------------------------------------------------------------|
B|---------------------------------------------------------------------------|
G|---------------------------------------------------------------------------|
D|------9-------9-------9-------9---1010101010101010101010101010x-x----------|
A|--x-x-9---x-x-9---x-x-9---x-x-9---1010101010101010101010101010x-x----------|
E|--x-x-7---x-x-7---x-x-7---x-x-7---8-8-8-8-8-8-8-8-8-8-8-8-8-8-x-x----------|

01:03
e|---------------------------------------------------------------------------|
B|---------------------------------------------------------------------------|
G|---------------------------------------------------------------------------|
D|--4---4------4---4------4---4------4---4-----------------------------------|
A|--4---4------4---4------4---4------4---4---(x)-----------------------------|
E|--2---2---(x)2---2---(x)2---2---(x)2---2---(x)-----------------------------|

e|---------------------------------------------------------------------------|
B|---------------------------------------------------------------------------|
G|--11--11--1111x-14--1111--111111x-9---9b9b9b9b9b9b9b9b9b9b9b9b9b9bx-x------|
D|--x---x---x-x-x-x---x-x---x-x-x-x-x---x-x-x-x-x-x-x-x-x-x-x-x-x-x-x-x------|
A|--9---9---9-9-x-12--9-9---9-9-9-x-7---7-7-7-7-7-7-7-7-7-7-7-7-7-7-x-x------|
E|---------------------------------------------------------------------------|

e|---------------------------------------------------------------------------|
B|---------------------------------------------------------------------------|
G|---------------------------------------------------------------------------|
D|--4---4------4---4------4---4------4---4-----------------------------------|
A|--4---4------4---4------4---4------4---4---(x)-----------------------------|
E|--2---2---(x)2---2---(x)2---2---(x)2---2---(x)-----------------------------|

e|---------------------------------------------------------------------------|
B|---------------------------------------------------------------------------|
G|--11--11--1111x-14--1111--111111x-9---9-9-9-9-9-9-9-9-9-9-9-9-9-9-x-x------|
D|--x---x---x-x-x-x---x-x---x-x-x-x-x---x-x-x-x-x-x-x-x-x-x-x-x-x-x-x-x------|
A|--9---9---9-9-x-12--9-9---9-9-9-x-7---7-7-7-7-7-7-7-7-7-7-7-7-7-7-x-x------|
E|---------------------------------------------------------------------------|

hold chord
e|---------------------------------------------------------------------------|
B|---------------------------------------------------------------------------|
G|--3------------------------------------------------------------------------|
D|--4------------------------------------------------------------------------|
A|--4------------------------------------------------------------------------|
E|--2------------------------------------------------------------------------|

tchaketchak!
e|--2-------2-------1-------0------------------------------------------------|
B|--2-------2-------2-------1------------------------------------------------|
G|--3-------3-------3-------2------------------------------------------------|
D|---------------------------------------------------------------------------|
A|---------------------------------------------------------------------------|
E|---------------------------------------------------------------------------|

02:05
e|---------------------------------------------------------------------------|
B|---------------------------------------------------------------------------|
G|---------------------------------------------------------------------------|
D|---------------------------------------------------------------------------|
A|--9-9-9-11121211119-9-9-1112121111161616161212161615151515151515x----------|
E|---------------------------------------------------------------------------|

                                            P.M--|
e|---------------------------------------------------------------------------|
B|---------------------------------------------------------------------------|
G|---------------------------------------------------------------------------|
D|------------------------------------------------10-------------------------|
A|--9-9-9-11121211119-9-9-1112121111--------------10-------------------------|
E|----------------------------------9-------8-8-8-8--------------------------|

repeat bits and pieces 00:09, 00:18 & 00:28; slightly different!

************************************

| /   slide up
| \   slide down
| h   hammer-on
| p   pull-off
| ~   vibrato
| +   harmonic
| x   Mute note
| b   Bend
| pb  Pre-bend
| br  Bend release
| pbr Pre-bend release
| brb Bend release bend

************************************
Добавлено: 28.03.2012
Другие материалы по этой песне:
  • Аккорды и текст

Страница создана 28.03.2012
http://primanota.ru/black-sheep/reste-la-chords.htm
Привет, Гость.
Предлагаем пройти революционный курс по гитаре.
Подарок от PrimaNota.Ru, забирай!