PrimaNota.ru - самый крупный в мире бесплатный архив песенных текстов, аккордов, табулатур и нот


Black Sabbath - You Wont Change Me - аккорды и текст, таба, видео

Регистрация Запомнить меня
Войти через:  Facebook Google Twitter Vk Yandex Mail.ru

Black Sabbath - You Wont Change Me - аккорды и текст, таба, видео

Печатать
Просмотров: 433
You Wont Change Me
Black Sabbath
You Won't Change Me
 Black Sabbath - Technical Ecstacy (1976)
 
 
 |----------------------------------------------------------
 |----------------------------------------------------------
 |----------------------------------------------------------
 |-------------------------------------------5---p-3--------
 |-5---4---3---2-p-0-------5---4---3--2-p-0-----------------
 |--------------------2-------------------------------------
 
 "im just a man..."
 |---------------------------------------|-A.H.------
 |---------------------------------------|--8--------
 |---------------------------------------|----8------
 |-5-/-10------106------63-------5/10--|------10---
 |-5-/-10------106------63-------5/10--|-----------
 |-3-/--8-------84------41-------3/-8--|-----------
 
 
 "don't need your lie"  **fill**
 |--------------------------------------|-------------------
 |--11^---------------------------------|-------------------
 |----------------8---------------------|-------------------
 |-------------------10------8----------|----------8--------
 |-----------------------------10-86---|---6-8-10---10-8-10
 |------------------------------------8-|-8-----------------
 
 "but id like to talk thing over with you..."
 |----------------------------------------------------------
 |--------------------11^^11-11^----------------------------
 |-8--------------------------------------------------------
 |-8-------------6------------3-------5/10------------------
 |-6-------------6------------3-------5/10------------------
 |---------------4------------1-------3/-8------------------
 **fill**
 |-8----------------------------------
 |---11-8-----------------------------
 |--------10-8----10-8h10p8----8------
 |-------------10-----------10---10--
 |------------------------------------
 |------------------------------------
 
 "although you wont change..."
 |----------------------------------------------------------
 |----------------------------------------------------------
 |----------------------------------------------------------
 |-6---------------3------5/10------------------------------
 |-6---------------3------5/10-----5-5-5-5-5-5-5-5-5-5-5-5--
 |-4---------------1------3/-8-----3-3-3-3-3-3-3-3-3-3-3-3--
 
 "nobody's gonna change my world..."
 |----------------------------------------------------------
 |----------------------------------------------------------
 |-------------------------------------3----2---------------
 |-------------------------------------3----2---------------
 |--5----4----3---2----5---4---3---2---1----0---------------
 |----------------------------------------------------------
 
 after solo:
 |----------------------------------------------------------
 |----------------------------------------------------------
 |----------------------------------------------------------
 |-10-10-10-10-5-5-5-5/10-----------------------------------
 |-10-10-10-10-5-5-5-5/10-----------------------------------
 |--8--8--8--8-3-3-3-3/-8-----------------------------------
 
 ***the next is fills for the verses***
 
 "if there's a god up there..."
 |-------------------|----------------|---------------------------
 |-------------------|----------------|---------------------------
 |-8-7-8-7h8p7-------|----------------|--------------8-------8----
 |-------------8-10--|--10-8----------|------------8---10------10-
 |-------------------|-------10-8-6---|-----6-8/10----------------
 |-------------------|--------------8-|-6/8-----------------------
                  "cause it may be that its over..."
 |-------------------|--------------------|-----------------
 |-------------------|---------11^^11-11^-|-^11-8-----------
 |-------------8-7/8-|--------------------|-------10p8------
 |--------8-10-------|--------------------|------------10---
 |-6-8-10------------|--------------------|-----------------
 |-------------------|--------------------|-----------------
 "..that i say, today"    "nobody will change..."
 |------------------------|---------------|-----------------|----------------
 |------------------------|---------------|-----------------|----------------
 |----------8-7-8-7h8p7---|---------------|-----------------|-7-8-8p7--------
 |-----8-10------------10-|-10-8----------|-----------------|---------10p8---
 |-8-10-------------------|------108-6-8-|-6h8-/10-8p6-----|-------------10-
 |------------------------|---------------|-------------8---|----------------
 
 "nobody's gonna change my world..."
 |----------------------------------------------------------
 |----------------------------------------------------------
 |-------------------------------------3----2---------------
 |-------------------------------------3----2---------------
 |--5----4----3---2----5---4---3---2---1----0---------------
 |----------------------------------------------------------
 
 
 ***The outro solo is more or less this kind of stuff***
 
 |-13^-13-101310-13101310-1310-13101310-10--------------x---
 |-----------------------------------------13-1013101310x---
 |----------------------------------------------------------
 |----------------------------------------------------------
 |----------------------------------------------------------
 |----------------------------------------------------------
 
 |-------10--------------------------10-131013101310--------
 |-131013101310131013101310131013101310---------------------
 |----------------------------------------------------------
 |----------------------------------------------------------
 |----------------------------------------------------------
 |----------------------------------------------------------
 
 |-----1013-10-1310-10-1310---------------------------------
 |-1013-------------10-----1310-1210------------------------
 |----------------------------------1210-1210--10-----------
 |-------------------------------------------12--1210-------
 |---------------------------------------------------12108-
 |----------------------------------------------------------
 
 |---------------10-x/10--1310-10-10---x--13--15-15^--(15)p0-
 |---------------10--/10--1310-10-10/13----------------------
 |-----------------------------12----------------------------
 |-----------------------------------------------------------
 |-----------x/x---------------------------------------------
 |-x810-8108-------------------------------------------------
 
 |---13---15px-1513--13------------10131013p0-1310----------
 |-----------------16-x------------10-------x-----13p0-x----
 |----------------------1412-12^---------------------------
 |----------------------------------------------------------
 |----------------------------------------------------------
 |----------------------------------------------------------
 
 |----10-13-101310-----10-10--------------------------------
 |-13^-------------13^------1310--10------------------------
 |------------------------------12^^^p10-12--12^^^----------
 |----------------------------------------------------------
 |----------------------------------------------------------
 |----------------------------------------------------------
 
 |-----------------------------H--------------10-13^--13-10------
 |------------------------------------------10--------------13p0-
 |---12p0--12--10-109-10-9-9hx12----10-12^----------------------
 |-------------------------------12------------------------------
 |---------------------------------------------------------------
 |---------------------------------------------------------------
 
 |---x-13-15-15^---15----x-------18^^^18^^^---0-----------10---------
 |-x--------------------x---------------------0-------------13-10----
 |-----------------------------------------------1412^^^--------12^-
 |-------------------------------------------------------------------
 |-------------------------------------------------------------------
 |-------------------------------------------------------------------
 
 

Добавлено: 05.05.2012
Другие материалы по этой песне:

Страница создана 15.03.2012
http://primanota.ru/black-sabbath/you-wont-change-me-chords.htm
Привет, Гость.
Предлагаем пройти революционный курс по гитаре.
Подарок от PrimaNota.Ru, забирай!