PrimaNota.ru - самый крупный в мире бесплатный архив песенных текстов, аккордов, табулатур и нот


Black Sabbath - Rock And Roll Doctor - аккорды и текст, видео

Регистрация Запомнить меня
Войти через:  Facebook Google Twitter Vk Yandex Mail.ru

Black Sabbath - Rock And Roll Doctor - аккорды и текст, видео

Печатать
Просмотров: 229
Уроки эстрадного вокала в Санкт-Петербурге
Rock And Roll Doctor
Black Sabbath
E|---------------------------------------------------------------------------|
B|---------------------------------------------------------------------------|
G|7h9~~--9-9p8p7--------7-9-10-10p9p7~--7h9~~-9-9-9p8p7-------7-9-10-10p9p7~-|
D|---------------9~~-7/9-------------------------------9~~-7/9---------------|
A|---------------------------------------------------------------------------|
E|---------------------------------------------------------------------------|

E|-------------------------------------------|
B|-------------------------------------------|
G|9h11~~-11-11p10p9--------9-11-12-12p11p9~--|
D|-----------------11~-9/11------------------|
A|-------------------------------------------|
E|-------------------------------------------|

E|-------------------------------------------|
B|-------------------------------------------|
G|-9h11~~-11-11p10p9--------9-11-12-12p11p9~-|
D|------------------11~-9/11-----------------|
A|-------------------------------------------|
E|-------------------------------------------|

E|--------------------------------------------------12-|
B|------------------------------------------------12---|
G|--------------------------------------12-14^(16)-----|
D|-----------------------12-14p12--12h14---------------|
A|-----10h12p10--10h12/14--------14--------------------|
E|10h12--------12--------------------------------------|

E|-/17^(19)-17-15-17p15---------------|
B|---------------------17-15----------|
G|--------------------------16\12-----|
D|-------------------------------14~~-|
A|------------------------------------|
E|------------------------------------|
(Guitar 1)

E|-----------------------------------------------|
B|-----------------------------------------------|
G|-----------------------------------------------|
D|11-11--10-10--9-13/15\14-----------------------|
A|-9-11---8-10--7-13/15\14-{Let this chord ring}-|
E|----9------8----11/13\12-----------------------|
(Guitar 2)

E|---------------------------------------------------|
B|---------------------------------------------------|
G|--------2-----------2-2-2--------2-----------2-2-2-|
D|2-2-----2--2-2-2----2-2-2-2-2----2--2-2-2----2-2-2-|
A|0-0--3h4---0-0-0-3h4---3--0-0-3-4---0-0-0-3h4---3--|
E|---------------------------------------------------|
Well I'm

E|---------------------------------------------------|
B|---------------------------------------------------|
G|--------2-----------2-2-2--------2-----------2-2-2-|
D|2-2-----2--2-2-2----2-2-2-2-2----2--2-2-2----2-2-2-|
A|0-0--3h4---0-0-0-3h4---3--0-0-3-4---0-0-0-3h4---3--|
E|---------------------------------------------------|
sick and tired of hearing 'bout the whole entertainer. Gonna

E|---------------------------------------------------|
B|---------------------------------------------------|
G|--------2-----------2-2-2--------2-----------2-2-2-|
D|2-2-----2--2-2-2----2-2-2-2-2----2--2-2-2----2-2-2-|
A|0-0--3h4---0-0-0-3h4---3--0-0-3-4---0-0-0-3h4---3--|
E|---------------------------------------------------|
get myself together, take a ride down town.

CHOURSE
E|-----------------------------------------|
B|---------5-5-4--2-2h4-------5-5-4--2-2h4-|
G|--4--2----------------4--2---------------|
D|------4-------------------4--------------|
A|2--------------------2-------------------|
E|-----------------------------------------|
(Guitar 1)

E|-----------------------------------------|
B|-----------------------------------------|
G|-----------------------------------------|
D|4-------9-9-8--------4-----9-9-8---------|
A|2-------7-7-6--0-2p0-2-----7-7-6--0--2p0-|
E|-----------------------------------------|
(Guitar 2)
Gotta see my Rock 'n' Roll Doctor Gotta see my Rock 'n' Roll Doctor

CHOURSE
E|---------------------------------|
B|---------5-5-4--2-2h4------------|
G|--4--2----------------4--2-------|
D|------4-------------------4-9--7-|
A|2--------------------2------7--5-|
E|---------------------------------|
(Guitar 1)

E|---------------------------------|
B|---------------------------------|
G|---------------------------------|
D|4-------9-9-8--------4------9--7-|
A|2-------7-7-6--0-2p0-2------7--5-|
E|---------------------------------|
(Guitar 2)
Gotta see my Rock 'n' Roll Doctor I gotta see him, see him today
He's gonna blow me away!

E|---------------------------------------------------|
B|---------------------------------------------------|
G|--------2-----------2-2-2--------2-----------2-2-2-|
D|2-2-----2--2-2-2----2-2-2-2-2----2--2-2-2----2-2-2-|
A|0-0--3h4---0-0-0-3h4---3--0-0-3-4---0-0-0-3h4---3--|
E|---------------------------------------------------|
He

E|---------------------------------------------------|
B|---------------------------------------------------|
G|--------2-----------2-2-2--------2-----------2-2-2-|
D|2-2-----2--2-2-2----2-2-2-2-2----2--2-2-2----2-2-2-|
A|0-0--3h4---0-0-0-3h4---3--0-0-3-4---0-0-0-3h4---3--|
E|---------------------------------------------------|
makes me happy when I'm feeling down, yeah! Takes

E|---------------------------------------------------|
B|---------------------------------------------------|
G|--------2-----------2-2-2--------2-----------2-2-2-|
D|2-2-----2--2-2-2----2-2-2-2-2----2--2-2-2----2-2-2-|
A|0-0--3h4---0-0-0-3h4---3--0-0-3-4---0-0-0-3h4---3--|
E|---------------------------------------------------|
away my worry, takes away my frown.

CHOURSE
E|-----------------------------------------|
B|---------5-5-4--2-2h4-------5-5-4--2-2h4-|
G|--4--2----------------4--2---------------|
D|------4-------------------4--------------|
A|2--------------------2-------------------|
E|-----------------------------------------|
(Guitar 1)

E|-----------------------------------------|
B|-----------------------------------------|
G|-----------------------------------------|
D|4-------9-9-8--------4-----9-9-8---------|
A|2-------7-7-6--0-2p0-2-----7-7-6--0--2p0-|
E|-----------------------------------------|
(Guitar 2)
Gotta see my Rock 'n' Roll Doctor Gotta see my Rock 'n' Roll Doctor

CHOURSE
E|---------------------------------|
B|---------5-5-4--2-2h4------------|
G|--4--2----------------4--2-------|
D|------4-------------------4-9--7-|
A|2--------------------2------7--5-|
E|---------------------------------|
(Guitar 1)

E|---------------------------------|
B|---------------------------------|
G|---------------------------------|
D|4-------9-9-8--------4------9--7-|
A|2-------7-7-6--0-2p0-2------7--5-|
E|---------------------------------|
(Guitar 2)
Gotta see my Rock 'n' Roll Doctor I gotta see him, see him today
He's gonna blow me a-

E|10~~~~~~~~~~~~--7-10p7h10p7h10p7---------------------------------------------|
B|--------------------------------7-7h10p7h10p7h10p7---------------------------|
G|--------------------------------------------------7-7h9p7h9p7h9p7------------|
D|-----------------------------------------------------------------9p7h9p7\5-5-|
A|--------------------------------------------------------------------------7--|
E|-----------------------------------------------------------------------------|
(Guitar 1)
way!

E|-----------------------------------------------------------------------------|
B|-----------------------------------------------------------------------------|
G|-----------------------------------------------------------------------------|
D|12-12-12-12-12-12--12\(9)-12-12-12-12-12-12-12\(9)-12-12-12-12-12-12--12\(9)-|
A|12-12-12-12-12-12--12\(9)-12-12-12-12-12-12-12\(9)-12-12-12-12-12-12--12\(9)-|
E|10-10-10-10-10-10--10\(7)-10-10-10-10-10-10-10\(7)-10-10-10-10-10-10--10\(7)-|
{..Chop with pm..} {..Chop with pm..} {..Chop with pm..}
(Guitar 2)

E|--------------------------------------------------------------------------|
B|-----------------------------------------------8-10p8-8-8-8h10p8----------|
G|------------------------------------------5/7h9------9----------9p7\5-5~~-|
D|7p5h7p5h7p5----------------------------5-7---------------------------7----|
A|-----------7p5h7p5h7p5\3h5p3h5p3h5p3/7------------------------------------|
E|--------------------------------------------------------------------------|
Guitar 1)

E|----------------------------------------------|
B|----------------------------------------------|
G|----------------------------------------------|
D|12-12-12-12-12-12--12\(9)--12-12-12-12-12-12--|
A|12-12-12-12-12-12--12\(9)--12-12-12-12-12-12--|
E|10-10-10-10-10-10--10\(7)--10-10-10-10-10-10--|

E|-----------------------------------|
B|-----------------------------------|
G|-----------------------------------|
D|-12\(9)--12-12-12-12-12-12--12\(9)-|
A|-12\(9)--12-12-12-12-12-12--12\(9)-|
E|-10\(7)--10-10-10-10-10-10--10\(7)-|
{..Chop with pm..} {..Chop with pm..} {..Chop with pm..}
(Guitar 2)

E|--------------------------------------12-15-15^(17`15)-12-15^(17~~~~~~~~)-|
B|------12-15-15^(17`15)-12-15~~~--12/15------------------------------------|
G|(9)/14--------------------------------------------------------------------|
D|--------------------------------------------------------------------------|
A|--------------------------------------------------------------------------|
E|--------------------------------------------------------------------------|
(Guitar 1)

E|------------------------------------------------------------------|
B|------------------------------------------------------------------|
G|------------------------------------------------------------------|
D|10-----9-----7--------------------10-----9-----5------------------|
A|10-----9-----7-{Let chord ring}---10-----9-----5-{Let chord ring}-|
E|-8-----7-----5---------------------8-----7-----3------------------|
(Guitar 2)

E|---------------------------------------------------|
B|---------------------------------------------------|
G|--------2-----------2-2-2--------2-----------2-2-2-|
D|2-2-----2--2-2-2----2-2-2-2-2----2--2-2-2----2-2-2-|
A|0-0--3h4---0-0-0-3h4---3--0-0-3-4---0-0-0-3h4---3--|
E|---------------------------------------------------|
If

E|---------------------------------------------------|
B|---------------------------------------------------|
G|--------2-----------2-2-2--------2-----------2-2-2-|
D|2-2-----2--2-2-2----2-2-2-2-2----2--2-2-2----2-2-2-|
A|0-0--3h4---0-0-0-3h4---3--0-0-3-4---0-0-0-3h4---3--|
E|---------------------------------------------------|
you wanna feel groovy, give the Doctor a call, yeah!

E|---------------------------------------------------|
B|---------------------------------------------------|
G|--------2-----------2-2-2--------2-----------2-2-2-|
D|2-2-----2--2-2-2----2-2-2-2-2----2--2-2-2----2-2-2-|
A|0-0--3h4---0-0-0-3h4---3--0-0-3-4---0-0-0-3h4---3--|
E|---------------------------------------------------|
Doctor Rock will help you anytine at all.

CHOURSE
E|-----------------------------------------|
B|---------5-5-4--2-2h4-------5-5-4--2-2h4-|
G|--4--2----------------4--2---------------|
D|------4-------------------4--------------|
A|2--------------------2-------------------|
E|-----------------------------------------|
(Guitar 1)

E|-----------------------------------------|
B|-----------------------------------------|
G|-----------------------------------------|
D|4-------9-9-8--------4-----9-9-8---------|
A|2-------7-7-6--0-2p0-2-----7-7-6--0--2p0-|
E|-----------------------------------------|
(Guitar 2)
Gotta see my Rock 'n' Roll Doctor Gotta see my Rock 'n' Roll Doctor

CHOURSE
E|---------------------------------|
B|---------5-5-4--2-2h4------------|
G|--4--2----------------4--2-------|
D|------4-------------------4-9--7-|
A|2--------------------2------7--5-|
E|---------------------------------|
(Guitar 1)

E|---------------------------------|
B|---------------------------------|
G|---------------------------------|
D|4-------9-9-8--------4------9--7-|
A|2-------7-7-6--0-2p0-2------7--5-|
E|---------------------------------|
(Guitar 2)
Gotta see my Rock 'n' Roll Doctor I gotta see him, see him today
He's gonna blow me away!

E|--------------------------------------------------------------|
B|--------------------------------------------------------------|
G|-----5--4-------------------------5--4------------------------|
D|2-2--5--4-2------------------2-2--5--4-2------------------2-2-|
A|0-0-------0--0-2-0-2-0-2-0---0-0-------0--0-2-0-2-0-2-0---0-0-|
E|---------------------------3----------------------------3-----|
{...slight pm...} {...slight pm...}
Ahhhh right away! Now gonna blow me away!

E|--------------------------------------------------------------|
B|--------------------------------------------------------------|
G|-----5--4-------------------------5--4------------------------|
D|2-2--5--4-2------------------2-2--5--4-2------------------2-2-|
A|0-0-------0--0-2-0-2-0-2-0---0-0-------0--0-2-0-2-0-2-0---0-0-|
E|---------------------------3----------------------------3-----|
{...slight pm...} {...slight pm...}
Ahhh right away! Ohh yea, yea right away!

E|--------------------------------------------------------------|
B|--------------------------------------------------------------|
G|-----5--4-------------------------5--4------------------------|
D|2-2--5--4-2------------------2-2--5--4-2------------------2-2-|
A|0-0-------0--0-2-0-2-0-2-0---0-0-------0--0-2-0-2-0-2-0---0-0-|
E|---------------------------3----------------------------3-----|
{...slight pm...} {...slight pm...}
Now gonna blow me away! Ahh right away ooh, yeah, ohh, yeah

E|------------------------------------------|
B|------------------------------------------|
G|-----5--4-------------------------5--4----|
D|2-2--5--4-2------------------2-2--5--4-2--|
A|0-0-------0--0-2-0-2-0-2-0---0-0-------0--|
E|---------------------------3--------------|

E|--------------------------------------|
B|--------------------------------------|
G|--------------------------------------|
D|-----------------2------------------2-|
A|-0-2-0-2-0-2-0---0-{Let chord ring}-0-|
E|---------------3----------------------|
{...slight pm...} {...slight pm...}
Right away Oh yaeah, ohhh.
Добавлено: 31.12.2013
Другие материалы по этой песне:
  • Аккорды и текст

Страница создана 31.12.2013
http://primanota.ru/black-sabbath/rock-and-roll-doctor-chords.htm
Привет, Гость.
Предлагаем пройти революционный курс по гитаре.
Подарок от PrimaNota.Ru, забирай!