PrimaNota.ru - самый крупный в мире бесплатный архив песенных текстов, аккордов, табулатур и нот


Black Sabbath - Paranoid1 - таба, видео

Регистрация Запомнить меня
Войти через:  Facebook Google Twitter Vk Yandex Mail.ru

Black Sabbath - Paranoid1 - таба, видео

Печатать
Просмотров: 202


                PARANOID - BY BLACK SABBATH


This song is just made up of a few riffs. So just listen to the song and you will know what to do. P.s. I'm Working on the SOLO and I'll have it up by  the end of this week  (hopefully)   -J.M.
h- means hammer-on
                       (Repeat 4 x )
[  --------------------------------------------------------------------------------------------
[  --------------------------------------------------------------------------------------------
[  --------------------------------------------------------------------------------------------
[  --------------------------------------------------------12h14-----------------12---------
[  ---12h14-------- 12h14------12h14--------12h14-------------12h14-----------14---
[  ---12-------------12---------12-----------------------------------------------------------

   (If you want to you can palm mute this section............................)
[  -------------------------------------------------------------------------------------------------------12--
[  -------------------------------------------------------------------------------------------------------12--
[  -------------------------------------------------------------------------------------------------------12--
[  ----------------------------------------------------------------------------12-----------------------------
[  14141414141414141414141414141414--1212121212121212--10----12----14---------------
[  12121212121212121212121212121212--1010101010101010---------10----12----------------

[  ---------------------------------------------------------------------------------------------
[  ---------------------------------------------------------------------------------------------
[  ---------------------------------------------------------------------------------------------
[  ---------------------------------------------------------------------------------------------
[  ---14------------10-------------12-------1414141414141414----------------------------
[  ---12-------------8------------- 10-------1212121212121212-----ETC..----------------

   (can      you     help     me   )     ( occupy   my   brain      )
[  ---------------------------------------------------------------------------------------------
[  ---------------------------------------------------------------------------------------------
[  ---------------------------------------------------------------------------------------------
[  ---------------------------------------------------------------------------------------------
[  ------14----------------------------------12---------------------14-------------------12---
[  ------12----------------------------------10---------------------12-------------------10---

I'll have this Solo really soon     

FINALLY      At the end
[ ---------------------------------------------------------------------------------------------
[ ---------------------------------------------------------------------------------------------
[ ---------------------------------------------------------------------------------------------
[ ---------------------------------------------------------------------------------------------
[ ---14141414141414141414141414141414-----1212121212121212-----12-------2-----
[ ---12121212121212121212121212121212-----1010101010101010-----10--3~--0------

Добавлено: 27.10.2013
Другие материалы по этой песне:
  • Аккорды и текст

Страница создана 27.10.2013
http://primanota.ru/black-sabbath/paranoid1-chords.htm
Привет, Гость.
Предлагаем пройти революционный курс по гитаре.
Подарок от PrimaNota.Ru, забирай!