PrimaNota.ru - самый крупный в мире бесплатный архив песенных текстов, аккордов, табулатур и нот


Black Sabbath - Odin'S Court / Valhalla - аккорды и текст, видео

Регистрация Запомнить меня
Войти через:  Facebook Google Twitter Vk Yandex Mail.ru

Black Sabbath - Odin'S Court / Valhalla - аккорды и текст, видео

Печатать
Просмотров: 165
Odin'S Court / Valhalla
Black Sabbath
----------------------(2)/3--5-(0)---------------------0------------------
----0-------3-------0-(2)/3--5-(0)--0------3-----------0------------------
---0--(2)/4-0-2-0--0------0-4------0-(2)/4-0-2-0--2-0--0------------------
--2---------------2---------------2------------------2-2------------------
--------------------------------------------------------------------------
--------------------------------------------------------------------------
Guitar 1 (6 string accoustic) {Play 2x, then as rythm for lyrics}
 
As you walk alone the night surrounds you like a shroud
The dreams you had were once of love and being proud
Misty horizons block your vision of the world

-7-10^(12-12-12`10)10p7-10^(12-12-12`10)-7-10^(12)-----
-------------------------------------------------------
-------------------------------------------------------
-------------------------------------------------------
-------------------------------------------------------
-------------------------------------------------------
{Guitar 2 fill}

But the Raven's eyes will show you all you need to know.

-5-555-3--2-3-00-0----5-555-3-2-3-00-0----5-555-3-2-3-00-0------
-6-666-5--3-0-11--1---6-666-5-3-0-11--1---6-666-5-3-0-11--1-----
-7-777-4--2-0-22---2--7-777-4-2-0-22---2--7-777-4-2-0-22---2----
-0-000------0-22----2-0-000-----0-22----2-0-000-----0-22----2---
------------2-00----------------2-00----------------2-00--------
------------3-------------------3-------------------3-----------

-5-555-3-2-3-00-0-------
-6-666-5-3-0-11--1------
-7-777-4-2-0-22---2-----
-0-000-----0-22----2----
-----------2-00---------
-----------3------------

-10^(12`10)-7--------------17^(19)------------10^(12)------------
--------------8-10-10--------------17^(19)-----------------------
-----------------------------------------------------------------
-----------------------------------------------------------------
-----------------------------------------------------------------
-----------------------------------------------------------------
Guitar 2 fills (volume pedal used for fading) Ohh

-7-10^(12-12-12-12`10)-10p7-10^(12)--------------------------
---------------------------------------10^(12`10)-8~---------
-------------------------------------------------------------
-----------------------------------------------------7/9~----
-------------------------------------------------------------
-------------------------------------------------------------
Guitar 2 {Guitar 1 palys rythm at top of this page}

The land you loved is now so barren and so cold -10/12-...{high e fill}
The name of God rings out so high in your soul -7/9-.....{d string}
This time the Masters will lead us by the sword
-10^(12)-...{high e} -(12`10)-7-{high e}

And should we fail then all prevails, in Odin's Court.

____________________________________________________________________________

Valhalla


-5-555-5-3-2-3-00-0-------------------
-6-666-6-5-3-0-11--1------------------
-7-777-7-4-2-0-22---2-----------------
-0-000-0-----0-22----2---------------- {PLay 4x during vocals below}
-------------2-00---------------------
-------------3------------------------

Leading us on, to the land of Eternity
Riding the cold cold winds of

------------------------------------------------------------
-----7---7-7--7--7-5-4-2-----7--7-7--7--7-7-----------------
-----7---7-7--7--7-5-4-2-----7--7-7--7--7-7-----------------
-----7---7-7--7--7-5-4-2-----7--7-7--7--7-7----------------- {Play 2x
-0000-00--0-00-00--------0000-00-0-00-00----2h3p2h3p2h3p2--- before lyrics}
---------------------------------------------------------3--
Rythm
Val hal la

The Kingdom of Odin is the Kingdom of Gods
Where only souls of the brave may rest in peace
But someone among them had the skill of deceit
And raised the hand that would open the road to Hel

---------------------------
---------------------------
----------------------2----
----------------------2---- {Play 4x}
-----------3-2--00000-0----
---------3----3------------
Chorus { pm }
When the winds of Valhalla run cold
Be sure that the blood will start to flow
When the winds of Valhalla run cold

Return to rythm
Valhalla Valhalla

The ring is broken and a soul must be saved
Among the bravest of men, who rides to Hel
The longships are sailing and the chariots ride
And yes the anger of Thor will serve you well

{Chorus}

----------------------------------0-0-3--
------------------7----7-----5-4--3-3-0--
------------------7-----7----5-4--2-2-0--
------------------7--7-------5-4--2-2-0--
-(2h3p2h3p2h3p2p0)5-------(0)3-2------2-- {Play 2x with the lyrics below}
--------------------------------------3--
So raise your hands
Reach an Valhalla will save your soul
Raise you eyes
Odin will lead us on

{Back to main rythm}

They say that history repeats itself
Upon the year of the seventh Century
But nobody knows no you never can tell
So you'd better run now and hide away

{Chorus}

-10--7h10p7--7-10-10p7h10-10p7-7---------------------------------
-----------10-------------------10p7h10-10~-10h11p10h11p10h11p10-
-----------------------------------------------------------------
-----------------------------------------------------------------
-----------------------------------------------------------------
-----------------------------------------------------------------

--------------------------------------------------------------------------
--------------------------------7-10-10p7--10-10p7--10p7-10p7-10p7------7-
-9h10p9\4h5p4----------------7/9---------9--------9-----9----9----9p7-9---
-------------5p4h-5p4-4---5-7----------------------------------------9----
-----------------5---5-5/7------------------------------------------------
--------------------------------------------------------------------------

-10-10p7--10p7--10p7-----------------------------20^(22)---------20^(23`20)
--------10----10----10p7h10p7-7-10p7-20~-20-20-17-------20p17--17----------
-----------------------------9-------------------------------19------------
---------------------------------------------------------------------------
---------------------------------------------------------------------------
---------------------------------------------------------------------------

-------------------------------------------------------------------
-20-20p17--17-20p17--17-20p17--------------------------------------
---------19--------19--------19-17-19p17--17-----------------------
----------------------------------------19--19p17p14h17p14p12------
-------------------------------------------------------------14-14-
-------------------------------------------------------------------

---------------------------------------------------------------------
-----------------12-10~-------7^(8)p-------17-----\(15)-15-----\(13)-
--(6/)9-7-(7/)12--------7p5-5-7^(8)p5------19^(21)\(17)-17^(19)\(15)-
-7-------------------------7---------7-7~----------------------------
---------------------------------------------------------------------
---------------------------------------------------------------------

------------------------------------------------17-19-19p17-----------------
-13-----\(11)-12-----\(9)--10-----\(7)--------17-----------20p17--20p17--17-
-15^(17)\(13)-14^(16)\(11)-12^(14)\(9)-19^(21)------------------19-----19---
----------------------------------------------------------------------------
----------------------------------------------------------------------------
----------------------------------------------------------------------------

----------------------------------------------------------------------------
----------------------------------------------------------------------------
-19p17--17------------------------------------------------------------------
------19--17h19p17h19p17h19p17\16h17p16h17p16h17p16\14h15p14h15p14h15p14\---
----------------------------------------------------------------------------
----------------------------------------------------------------------------

----------------------------------------------------------------------------
----------------------------------------------------------------------------
----------------------------------------------------------------------------
12h13p12h13p12h13p12\9h10p9h10p9h10p9\6h7p6h7p6h7p6h7p6\4h5p4h5p4h5p4h5p4\--
----------------------------------------------------------------------------
----------------------------------------------------------------------------

--------------------------------------------
-----------------------------------------2--
-----------------------------------------2-- (Close, I think!)
-2h3p2h3p2h3p2h3p2-----------------------2--
------------------2h3p2h3p2h3p2h3p2------0--
-----------------------------------3^(4)----

{Chorus}

Main Rythm with Guitar 2 playing fills below

----------------------------------------------------------------8p5-----9-5-
----------------------------------------------------------------------------
------------7^(8)----5-5-------------------------------------------7^(9)----
----------77-----7~---5-5h7~------------77xxx-7777-77-----------------------
----------------------------------------------------------------------------
----------------------------------------------------------------------------
Valhalla You can feel it in the air Valhalla Oh, you'd better beware.....

----------------------------------------------------------------------------
-------------------------------------------------5-----/-7------------------
---------------5---------------------------------7^(9)-/-9^(11)-------------
--------557757--7~-----55775577---------------------------------------------
----------------------------------------------------------------------------
----------------------------------------------------------------------------
{........pm..........}
Valhalla You can see it in his face Valhalla Oh, he's the master of this..

----------------------------------------------------------20^(22)-20p17-----
--------17-20p17---20p17-20~-17-20~-17-20~-20p17h20~-20p17------------------
-19^(22)--------19----------------------------------------------------------
----------------------------------------------------------------------------
----------------------------------------------------------------------------
----------------------------------------------------------------------------
Valhalla Valhalla

-20-17---------------------------------------------------------
-------20-17-20-17-------17------------------------------------
------------------19^(20)---19-17--------17---19^(21)-19-17-19-
---------------------------------19-17-19--19------------------
---------------------------------------------------------------
---------------------------------------------------------------
Valhalla
----------------------------------------------------------------------------
--------17-20p17--17-20p17--17-20p17--17-20p17--20p17-23~-20-17--17---------
-19^(22)--------19--------19--------19--------19---------------19--19-17--17
------------------------------------------------------------------------19--
----------------------------------------------------------------------------
----------------------------------------------------------------------------

----------------------------------------------------------------------------
---------------------------------------------------17-----------------------
---17-19-19^(21)--17h19p17h19p17h19p17h19p17h19p17---17h19p17h19p17h19p17---
-19-------------19----------------------------------------------------------
----------------------------------------------------------------------------
----------------------------------------------------------------------------
Valhalla {begin fade}

---------------------------------------------------------------20^(22)-22^(24)
-------------------------------------17~-20~-17h20p17-------17--------------
-17h19p17h19--17h19p17h19p17h19p17h19-----------------19^(21)---------------
------------19--------------------------------------------------------------
----------------------------------------------------------------------------
----------------------------------------------------------------------------
Добавлено: 05.03.2014
Другие материалы по этой песне:
  • Аккорды и текст

Страница создана 05.03.2014
http://primanota.ru/black-sabbath/odins-court-valhalla-chords.htm
Привет, Гость.
Предлагаем пройти революционный курс по гитаре.
Подарок от PrimaNota.Ru, забирай!