PrimaNota.ru - самый крупный в мире бесплатный архив песенных текстов, аккордов, табулатур и нот


Black Sabbath - N i b nativity in black - бас-таба, видео

Регистрация Запомнить меня
Войти через:  Facebook Google Twitter Vk Yandex Mail.ru

Black Sabbath - N i b nativity in black - бас-таба, видео

Печатать
Просмотров: 252


Ok As we all know this is a moderate song to play on the bass, I took and reworked them Using David Jakowenko work
to where do you do not have such high frets to play (Makes it easier to play with and do not have to Tap this
higher frets). Here they are, Hope this makes it easier for the people out there trying to learn this song :[)

NIB Black Sabbath bass solo
bass tablature
transcribed by David Jakowenko (jakowenk@tcnj.edu)
Rewrote By Darrell Keller (dkeller3000@yahoo.com)

notation:    regular number : quarter note
             a number tied with a ^ : 8th note
             number followed by a * : dotted note, add a beat to

4/4 ): E minor
G----------------|-----------|-------------|---7-9-9-10---|-9-7-----------|
D----------5--^5-|-7-9-7^5---|-----5--^5-7-|-9^-----------|------9^7--9-5-|
A-7^7-5^-----7---|---------7-|-5^----7-----|--------------|---------------|
E-------7--------|-----------|---7---------|--------------|---------------|

G-------------|-----------|------------|-------------|---7-9^9-9-7^---|
D--^5-7-9^7-5-|-----------|--------^5--|-5^7-9-7^5---|-9-----------9--|
A-7-----------|-7^5-------|-----7-7--7-|-----------7-|----------------|
E-------------|-----7-3-0-|-3^5--------|-------------|----------------|

G---------------|-------------|-------------|-------------|----------|
D-7^9--5--------|--^5--^5-7-9-|-7^5---5-----|-------------|-----5----|
A---------7^5---|-7---7-------|-----7---7^5-|--^5---------|-5^7---7*-|
E-------------7-|-------------|-------------|-7---3-0-3^5-|----------|

G-------------|--------|-------------|-------------|-------------|
D-----------5-|-9-7-5--|-------5-5-7-|-9^7-5-------|---------5-7-|
A-5^--5-5^7---|--------|--5^7--------|-------7-5^--|-----5^7-----|
E---7---------|--------|-------------|-----------3-|-5^7---------|

G----------7----|-9^9--7^-----------|-------------|-----------|-------|
D-9^7-5--7^-----|---------9--7^9--5-|-------5-----|-----------|---5---|
A-------7-------|-------------------|-7^5-----7^5-|---7-5-----|-7---7-|
E---------------|-------------------|-----7-------|-7-----5^7-|-------|

G----------------|----------|-------------|--------|---------|----------|-
D------^5-^5--^5-|-7^5------|------^5-^5-7|-9-7-5*-|---------|----------|-
A-7^5-7--7---7---|-----7-7*-|-7^5-7--7----|--------|-7-7-7-7-|-7^5---7*-|-
E----------------|----------|-------------|--------|---------|-----7----|-

Fade out on E

Questions, comments, or suggestions, mail to jakowenk@tcnj.eduNIB Black Sabbath bass solo
bass tablature
transcribed by David Jakowenko (jakowenk@tcnj.edu)

Right hand plays over the high frets; use a wah peddle
if desired.

notation:    regular number : quarter note
             a number tied with a ^ : 8th note
             number followed by a * : dotted note, add a beat to

4/4 ): E minor
G----------------|-----------|-------------|---------------|------------------|
D----------5--^5-|-7-9-7^5---|-----5--^5-7-|-9^12-14-14-15-|-14^12------------|
A-7^7-5^-----7---|---------7-|-5^----7-----|---------------|------14^12-14-10-|
E-------7--------|-----------|---7---------|---------------|------------------|

G-------------|-----------|------------|-------------|----------------------|
D--^5-7-9^7-5-|-----------|--------^5--|-5^7-9-7^5---|---^12-14^14-14-12^---|
A-7-----------|-7^5-------|-----7-7--7-|-----------7-|-14----------------14-|
E-------------|-----7-3-0-|-3^5--------|-------------|----------------------|

G----------------|-------------|-------------|-------------|----------|-
D----------------|--^5--^5-7-9-|-7^5---5-----|-------------|-----5----|-
A-12^14-10-7^5---|-7---7-------|-----7---7^5-|--^5---------|-5^7---7*-|-
E--------------7-|-------------|-------------|-7---3-0-3^5-|----------|-

G-------------|--------------|-------------|-------------|--------------|-
D-----------5-|-9-7-5-(rest)-|-------5-5-7-|-9^7-5-------|---------5-7--|-
A-5^--5-5^7---|--------------|--5^7--------|-------7-5^--|-----5^7------|-
E---7---------|--------------|-------------|-----------3-|-5^7----------|-

G---------------|----------------------|-------------|-----------|--------|-
D-9^7-5-----^12-|-14^14-12^------------|-------5-----|-----------|---5----|-
A-------7-14----|----------14-12^14-10-|-7^5-----7^5-|---7-5-----|-7---7*-|-
E---------------|----------------------|-----7-------|-7-----5^7-|--------|-

G----------------|----------|-------------|--------|---------|----------|-
D------^5-^5--^5-|-7^5------|------^5-^5-7|-9-7-5*-|---------|----------|-
A-7^5-7--7---7---|-----7-7*-|-7^5-7--7----|--------|-7-7-7-7-|-7^5---7*-|-
E----------------|----------|-------------|--------|---------|-----7----|-

Fade out on E

Добавлено: 12.09.2013
Другие материалы по этой песне:
  • Аккорды и текст

Страница создана 12.09.2013
http://primanota.ru/black-sabbath/n-i-b-nativity-in-black-chords.htm
Привет, Гость.
Предлагаем пройти революционный курс по гитаре.
Подарок от PrimaNota.Ru, забирай!