PrimaNota.ru - самый крупный в мире бесплатный архив песенных текстов, аккордов, табулатур и нот


Black Sabbath - Junior - аккорды и текст, видео

Регистрация Запомнить меня
Войти через:  Facebook Google Twitter Vk Yandex Mail.ru

Black Sabbath - Junior - аккорды и текст, видео

Печатать
Просмотров: 136
Уроки эстрадного вокала в Санкт-Петербурге
Junior
Black Sabbath
INTRO:
E|-----------------------------------------------------------------------|
B|-----------------------------------------------------------------------|
G|-----------------------------------------------------------------------|
D|----------5~------------------7-7-5~------5-7p5-------------5~------5--|
A|7(3)--5h7--------5-7(3)--5h7------(4))/7-----7--7(3)--5h7---7-7-7-7----|
E|-------------5-5-7-----------------------------------------------------|
(Bass..Adopted for Guitar 2)
 
[p>>f] Gm7
E|---------------------------------------------------------------------|
B|---------------------------------------------------------------------|
G|------------------------------------------------------------------12-|
D|------------------------------------------------------------------12-|
A|---------------------------------------------------------------------|
E|---------------------------------------------------------------------|
{Begin Guitar 1 vp up} {wah}

E|------------------------------------------------|
B|------------------------------------------------|
G|------------------------------------------------|
D|----------7-7-5~--5/7-5---------------55~-------|
A|7(3)--5h7-------------5h7p5-7(3)-5h7--------5---|
E|-----------------------------------------5-5-7--|

E|--------------------------------|
B|--------------------------------|
G|--------------------------------|
D|-------------7-7-5~-------------|
A|-7-7(3)-5h7-------7-7-5--7-7-5--|
E|--------------------------------|
(Guitar 2/Bass)

Gm7 Gm7
E|-----------------------------------------------------------|
B|-----------------------------------------------------------|
G|12-------------------12(7)---12--------------------12(7)---|
D|12-----10h12p10(7)--12(7)---12-----100h12p10(7)--12(7)-----|
A|-----------------------------------------------------------|
E|-----------------------------------------------------------|
{..........................wah............................}

E|--------------------------------------------------------------------------|
B|--------------------------------------------------------------------------|
G|--------------------------------------------------------------------------|
D|----------5~------------------7-7-5~------5-7p5-------------5~------5--5--|
A|7(3)--5h7--------5-7(3)--5h7------(4))/7-----7--7(3)--5h7---7-7-7-7--7----|
E|-------------5-5-7--------------------------------------------------------|
(Guitar 2/Bass)

Gm7 Gm7 (Am7)
E|----------------------------|
B|----------------------------|
G|12-------------------12(7)--|
D|12-----10h12p10(7)--12(7)---|
A|----------------------------|
E|----------------------------|
{...............wah...............}
(Guitar 1)

E|------------------------------------------------|
B|------------------------------------------------|
G|------------------------------------------------|
D|----------5~------------------7-7-5~------5-5---|
A|7(3)--5h7--------5-7(3)--5h7------7-77-7-7--7---|
E|-------------5-5-7------------------------------|
(Guitar 2/Bass)
Junior's eyes looked to the skies in tears

Gm7 Gm7 (Am7)
E|----------------------------|
B|----------------------------|
G|12-------------------12(7)--|
D|12-----10h12p10(7)--12(7)---|
A|----------------------------|
E|----------------------------|
{...............wah...............}
(Guitar 1)

E|--------------------------------------------------|
B|--------------------------------------------------|
G|--------------------------------------------------|
D|----------7-7-5~--5/7-5---------------55~---------|
A|7(3)--5h7-------------5h7p5-7(3)-5h7--------5-7---|
E|-----------------------------------------5-5-7----|
(Guitar 2/Bass)
He prayed that his maker, the giver and taker would hear

Gm7 Gm7 (Am7)
E|----------------------------|
B|----------------------------|
G|12-------------------12(7)--|
D|12-----10h12p10(7)--12(7)---|
A|----------------------------|
E|----------------------------|
{...............wah...............}
(Guitar 1)

E|--------------------------------------------------|
B|--------------------------------------------------|
G|--------------------------------------------------|
D|----------7-7-5~--5/7-5---------------55~---------|
A|7(3)--5h7-------------5h7p5-7(3)-5h7--------5-7---|
E|-----------------------------------------5-5-7----|
(Guitar 2/Bass)
Junior sighed as his hands reached out to the sky

Gm7 Gm7 (Am7) Em7
E|-----------------------------------|
B|-----------------------------------|
G|12-------------------12(7)---14~~--|
D|12-----10h12p10(7)--12(7)---14~~---|
A|-----------------------------------|
E|-----------------------------------|
{...............wah...............}
(Guitar 1)

E|----------------------------------------------|
B|----------------------------------------------|
G|----------------------------------------------|
D|----------7-7-5~--5/7-5------------7-7--7-7-7-|
A|7(3)--5h7-------------5h7p5-7(3)--------------|
E|----------------------------------------------|
(Guitar 2/Bass)
Junior cried the day that his best friend died, yeah!

CHORUS:
E5 E5 E5 D5 C5 C5 C5 C5
E|-----------------------------------------------|
B|-----------------------------------------------|
G|--9--xx-9-9--9--7--5-5-xx-5-5------------------|
D|--9--xx-9-9--9--7--5-5-xx-5-5------------------|
A|--7--xx-7-7--7--5--3-3-xx-3-3--2p0-2~-22/3-2p0-|
E|0----------------------------------------------|
You're coming home again tomorrow.

E5 E5 E5 D5 C5 C5 C5 C5
E|-----------------------------------------------|
B|-----------------------------------------------|
G|--9--xx-9-9--9--7--5-5-xx-5-5------------------|
D|--9--xx-9-9--9--7--5-5-xx-5-5------------------|
A|--7--xx-7-7--7--5--3-3-xx-3-3--2p0-2~-22/3-2p0-|
E|0----------------------------------------------|
I'm sorry it won't be for long

E5 E5 E5 D5 C5 C5 C5 C5
E|-----------------------------------------------|
B|-----------------------------------------------|
G|--9--xx-9-9--9--7--5-5-xx-5-5------------------|
D|--9--xx-9-9--9--7--5-5-xx-5-5------------------|
A|--7--xx-7-7--7--5--3-3-xx-3-3--2p0-2~-22/3-2p0-|
E|0----------------------------------------------|
With all the pain I've watched you live with in

E5 E5 E5 D5 C5 B5 D5
E|-------------------------------|
B|-------------------------------|
G|--9--xx-9-9--9--7--5-5-5--4--7-|
D|--9--xx-9-9--9--7--5-5-5--4--7-|
A|--7--xx-7-7--7--5--3-3-3--2--5-|
E|0------------------------------|
I'll try my hardest not to cry when it is time to say good bye.

Gm7 Gm7
E|-----------------------------------------------------------|
B|-----------------------------------------------------------|
G|12-------------------12(7)---12--------------------12(7)---|
D|12-----10h12p10(7)--12(7)---12-----100h12p10(7)--12(7)-----|
A|-----------------------------------------------------------|
E|-----------------------------------------------------------|
{..........................wah............................}
(Guitar 1)

E|--------------------------------------------------------------------------|
B|--------------------------------------------------------------------------|
G|--------------------------------------------------------------------------|
D|----------5~------------------7-7-5~------5-7p5-------------5~------5--5--|
A|7(3)--5h7--------5-7(3)--5h7------(4))/7-----7--7(3)--5h7---7-7-7-7--7-|
E|-------------5-5-7--------------------------------------------------------|
(Guitar 2/Bass)

Gm7 Gm7 (Am7)
E|----------------------------|
B|----------------------------|
G|12-------------------12(7)--|
D|12-----10h12p10(7)--12(7)---|
A|----------------------------|
E|----------------------------|
{...............wah...............}
(Guitar 1)

E|--------------------------------------------------|
B|--------------------------------------------------|
G|--------------------------------------------------|
D|----------7-7-5~--5/7-5---------------55~---------|
A|7(3)--5h7-------------5h7p5-7(3)-5h7--------5-7---|
E|-----------------------------------------5-5-7----|
(Guitar 2/Bass)
Junior's eyes couldn't disguise the pain

Gm7 Gm7 (Am7)
E|----------------------------|
B|----------------------------|
G|12-------------------12(7)--|
D|12-----10h12p10(7)--12(7)---|
A|----------------------------|
E|----------------------------|
{...............wah...............}
(Guitar 1)

E|--------------------------------------------------|
B|--------------------------------------------------|
G|--------------------------------------------------|
D|----------7-7-5~--5/7-5---------------55~---------|
A|7(3)--5h7-------------5h7p5-7(3)-5h7--------5-7---|
E|-----------------------------------------5-5-7----|
(Guitar 2/Bass)
His father was leaving, and Junior was grieving again

Gm7 Gm7 (Am7)
E|----------------------------|
B|----------------------------|
G|12-------------------12(7)--|
D|12-----10h12p10(7)--12(7)---|
A|----------------------------|
E|----------------------------|
{...............wah...............}
(Guitar 1)

E|--------------------------------------------------|
B|--------------------------------------------------|
G|--------------------------------------------------|
D|----------7-7-5~--5/7-5---------------55~---------|
A|7(3)--5h7-------------5h7p5-7(3)-5h7--------5-7---|
E|-----------------------------------------5-5-7----|
(Guitar 2/Bass)
Innocent eyes was the man who gave everything

Gm7 Gm7 (Am7) Em7
E|-----------------------------------|
B|-----------------------------------|
G|12-------------------12(7)---14~~--|
D|12-----10h12p10(7)--12(7)---14~~---|
A|-----------------------------------|
E|-----------------------------------|
{...............wah...............}
(Guitar 1)

E|----------------------------------------------|
B|----------------------------------------------|
G|----------------------------------------------|
D|----------7-7-5~--5/7-5------------7-7--7-7-7-|
A|7(3)--5h7-------------5h7p5-7(3)--------------|
E|----------------------------------------------|
(Guitar 2/Bass)
Junior's sorrow, he knew what tomorrow would bring, yeah!

CHORUS:
E5 E5 E5 D5 C5 C5 C5 C5
E|-----------------------------------------------|
B|-----------------------------------------------|
G|--9--xx-9-9--9--7--5-5-xx-5-5------------------|
D|--9--xx-9-9--9--7--5-5-xx-5-5------------------|
A|--7--xx-7-7--7--5--3-3-xx-3-3--2p0-2~-22/3-2p0-|
E|0----------------------------------------------|
(Guitar 1)
You're coming home again tomorrow.

E|----------------------------------------------------|
B|----------------------------------------------------|
G|----------------------------(5/)-9~~~---------------|
D|----------------------------------------7/97~-------|
A|-----------------------------------------------5-7~-|
E|----------------------------------------------------|
(Guitar 2)

E5 E5 E5 D5 C5 C5 C5 C5
E|-----------------------------------------------|
B|-----------------------------------------------|
G|--9--xx-9-9--9--7--5-5-xx-5-5------------------|
D|--9--xx-9-9--9--7--5-5-xx-5-5------------------|
A|--7--xx-7-7--7--5--3-3-xx-3-3--2p0-2~-22/3-2p0-|
E|0----------------------------------------------|
(Guitar 1)
I'm sorry it won't be for long

E|-------------------------------------------------------|
B|-------------------------------------------------------|
G|---------------------------9~~~------------------------|
D|-------------------------------9--7--5---7p5-----------|
A|---------------------------------------------7-5-5h7~~-|
E|-------------------------------------------------------|
(Guitar 2)

E5 E5 E5 D5 C5 C5 C5 C5
E|-----------------------------------------------|
B|-----------------------------------------------|
G|--9--xx-9-9--9--7--5-5-xx-5-5------------------|
D|--9--xx-9-9--9--7--5-5-xx-5-5------------------|
A|--7--xx-7-7--7--5--3-3-xx-3-3--2p0-2~-22/3-2p0-|
E|0----------------------------------------------|
(Guitar 1)
With all the pain I've watched you live with in

E|---------------------------------------------------------------|
B|------------------------------------------------------7-8------|
G|---------------------------------------------------7-9---9~~~~-|
D|---------------------------------------------5-7-9-------------|
A|------------------------------------------5/7------------------|
E|---------------------------------------------------------------|
(Guitar 2)

E5 E5 E5 D5 C5 B5 D5
E|-------------------------------|
B|-------------------------------|
G|--9--xx-9-9--9--7--5-5-5--4--7-|
D|--9--xx-9-9--9--7--5-5-5--4--7-|
A|--7--xx-7-7--7--5--3-3-3--2--5-|
E|0------------------------------|
(Guitar 1)
I'll try my hardest not to cry when it is time to say good bye.

E|-------------------------------------------------17/20---------------|
B|-----------------------------------------15-17-19------17~/20~--17~~-|
G|----------------------------------15/177-----------------------------|
D|---------------------------------------------------------------------|
A|---------------------------------------------------------------------|
E|---------------------------------------------------------------------|
(Guitar 2)

E5 E5 E5 D5 D5 E5 E5 D5 C5 B5
E|---------------------------------------------------------|
B|---------------------------------------------------------|
G|---9--xx-9-9--9--7--7--------------9--xxx-9-7-5-4--------|
D|---9--xx-9-9--9--7--7--------------9--xxx-9-7-5-4--------|
A|---7--xx-7-7--7--5--5--53--5/7----7--xxx-7-5-3-2--0-2/3--|
E|0-0----------------------------0-0-----------------------|

E5 E5 E5 D5 D5 E5 E5 D5 C5 B5
E|--------------------------------------------------|
B|--------------------------------------------------|
G|---9--xx-9-9--9--7--7--------------9--xxx-9-7-5-4-|
D|---9--xx-9-9--9--7--7--------------9--xxx-9-7-5-4-|
A|---7--xx-7-7--7--5--5--53--5/7----7--xxx-7-5-3-2--|
E|0-0----------------------------0-0----------------|

E|--------------------------------------------------------------------------------|
B|--------------------------------------------------------------------------------|
G|--------------------------------------------------------------------------------|
D|--------------------------------------------------------------------------------|
A|14^(16)---14^(16)---14^(16'14~)-14h16------------------------15-17~~~~~(12)-|
E|-------14--------14------------------144-16-16^(18-18~-18'16)---------------|
{..................................wah......................................}
(Guitar 1)

E|------------------------------------------------------------------|
B|------------------------------------------------------------------|
G|-9--9--9--9-xx-8-8-8-8--9--9--9--9--11----9-xx-11--9---9-xx-11--9-|
D|10-10-10-10-xx-9-9-9-9-10-10-10-10--12---10-xx-12--9--10-xx-12--9-|
A|10-10-10-10-xx-9-9-9-9-10-10-10-10--12---10-xx-12--7--10-xx-12--7-|
E|-8--8--8--8-xx-7-7-7-7--8--8--8--8--10----8-xx-10------8-xx-10----|
{...........................strum................................}
(Guitar 2 & Guitar 3 Acoustic)

E|------------------------------------------|
B|--------------------12-15p12--15~~~-------|
G|-------------14^(16)--------14-----14pp12-|
D|------------------------------------------|
A|5-/-7~~~~(3)------------------------------|
E|------------------------------------------|

E|-----------------------------------------|
B|----------15-----------------------------|
G|---14^(16)--14^(16'14)p12--14^(16'14~)9-|
D|-14----------------------14--------------|
A|-----------------------------------------|
E|-----------------------------------------|
(Guitar 1)

E|---------------------------------------------------|
B|---------------------------------------------------|
G|-9-xx-11--9---9-xx-11--9--9-xx-11--9----9-xx-11--9-|
D|10-xx-12--9--10-xx-12--9-10-xx-12--9--110-xx-12--9-|
A|10-xx-12--7--10-xx-12--7-10-xx-12--7--110-xx-12--7-|
E|-8-xx-10------8-xx-10-----8-xx-10-------8-xx-10----|
(Guitar 2 & Guitar 3 Acoustic)

E|-----------------------------------------------------------------|
B|------------------------7^(9)-7^(9)-5-55-------7^(9)-7^(9)-------|
G|----------------------------------------7~(3)-------------7-7~~--|
D|--------5-(7/)-9-7~~(5)------------------------------------------|
A|(5/)-7~----------------------------------------------------------|
E|-----------------------------------------------------------------|
{..................................wah......................................}
(Guitar 1)

E|---------------------------------------------------|
B|---------------------------------------------------|
G|-9-xx-11--9---9-xx-11--9--9-xx-11--9----9-xx-11--9-|
D|10-xx-12--9--10-xx-12--9-10-xx-12--9--110-xx-12--9-|
A|10-xx-12--7--10-xx-12--7-10-xx-12--7--110-xx-12--7-|
E|-8-xx-10------8-xx-10-----8-xx-10-------8-xx-10----|
(Guitar 2 & Guitar 3 Acoustic)

E|-----------------------------------------------------------------------------|
B|-----------------------------------------------------------------------------|
G|4-------------------4-4~~~(2)-4-------------------9-9~~(5)-------------------|
D|--7-5-5---------5-5--------------7-5-55---------5-9---------------5-5-7-97~--|
A|-------(5/)-7-7-------------------------(5/)-7-7------------(5/)-7-----------|
E|-----------------------------------------------------------------------------|
{..................................wah........................................}
(Guitar 1)

E|---------------------------------------------------|
B|---------------------------------------------------|
G|-9-xx-11--9---9-xx-11--9--9-xx-11--9----9-xx-11--9-|
D|10-xx-12--9--10-xx-12--9-10-xx-12--9--110-xx-12--9-|
A|10-xx-12--7--10-xx-12--7-10-xx-12--7--110-xx-12--7-|
E|-8-xx-10------8-xx-10-----8-xx-10-------8-xx-10----|
(Guitar 2 & Guitar 3 Acoustic)

Gm7 Gm7 (Am7)
E|----------------------------|
B|----------------------------|
G|12-------------------12(7)--|
D|12-----10h12p10(7)--12(7)---|
A|----------------------------|
E|----------------------------|
{...............wah...............}
(Guitar 1)

E|--------------------------------------------------|
B|--------------------------------------------------|
G|--------------------------------------------------|
D|----------7-7-5~--5/7-5---------------55~---------|
A|7(3)--5h7-------------5h7p5-7(3)-5h7--------5-7---|
E|-----------------------------------------5-5-7----|
(Guitar 2/Bass)

E|---------------------------------|
B|---------------------------------|
G|---------------------------------|
D|-------------------54------------|
A|------------------------7--5--7~-|
E|---------------------------------|
(Guitar 3) {vp in on each note}

Gm7 Gm7 (Am7)
E|----------------------------|
B|----------------------------|
G|12-------------------12(7)--|
D|12-----10h12p10(7)--12(7)---|
A|----------------------------|
E|----------------------------|
{...............wah...............}
(Guitar 1)

E|--------------------------------------------------|
B|--------------------------------------------------|
G|--------------------------------------------------|
D|----------7-7-5~--5/7-5---------------55~---------|
A|7(3)--5h7-------------5h7p5-7(3)-5h7--------5-7---|
E|-----------------------------------------5-5-7----|
(Guitar 2/Bass)

E|-----------------------------|
B|-1512------------------------|
G|--------1412-----------------|
D|-------------129-------------|
A|------------------5-/-7~~(3)-|
E|-----------------------------|
(Guitar 3)

Gm7 Gm7 (Am7)
E|----------------------------|
B|----------------------------|
G|12-------------------12(7)--|
D|12-----10h12p10(7)--12(7)---|
A|----------------------------|
E|----------------------------|
{...............wah...............}
(Guitar 1)

E|--------------------------------------------------|
B|--------------------------------------------------|
G|--------------------------------------------------|
D|----------7-7-5~--5/7-5---------------55~---------|
A|7(3)--5h7-------------5h7p5-7(3)-5h7--------5-7---|
E|-----------------------------------------5-5-7----|
(Guitar 2/Bass)

E|-------------------------|
B|-------------------------|
G|---------------9~~~~(5)--|
D|-------------------------|
A|-------------------------|
E|-------------------------|
(Guitar 3) {vp in}

Gm7 Gm7 (Am7)
E|----------------------------|
B|----------------------------|
G|12-------------------12(7)--|
D|12-----10h12p10(7)--12(7)---|
A|----------------------------|
E|----------------------------|
{...............wah...............}
(Guitar 1)

E|--------------------------------------------------|
B|--------------------------------------------------|
G|--------------------------------------------------|
Добавлено: 08.02.2016
Другие материалы по этой песне:
  • Аккорды и текст

Страница создана 08.02.2016
http://primanota.ru/black-sabbath/junior-chords.htm
Привет, Гость.
Предлагаем пройти революционный курс по гитаре.
Подарок от PrimaNota.Ru, забирай!