PrimaNota.ru - самый крупный в мире бесплатный архив песенных текстов, аккордов, табулатур и нот


Black Sabbath - Ear In The Wall - текст песни, таба, видео

Регистрация Запомнить меня
Войти через:  Facebook Google Twitter Vk Yandex Mail.ru

Black Sabbath - Ear In The Wall - текст песни, таба, видео

Печатать
Просмотров: 319
                             Black Sabbath - Ear in the Wall
Nobody had tabbed this yet so I thought I'd try it.
Tuning: D#A#F#C#G#D# (down half a step)
Intro
--------------------|-----------------------------|------------------------|
--------------------|-----------------------------|------------------------|
-9-11-12-14-12-11-7-|-9-11-12-14-12-11-5--4-------|-9-11-12-14-12-11-7-----|
-9-11-12-14-12-11-7-|-9-11-12-14-12-11-5--4--5--4-|-9-11-12-14-12-11-7-----|
-7-9--10-12-10-9--5-|-7-9--10-12-10-9--3--2--5--4-|-7-9--10-12-10-9--5-----|
--------------------|------------------------3--2-|------------------------|

--------------------|---|-----------------|
--------------------|---|-----------------|
-9-11-12-14-12-11-5-|-4-|-5-7-9-11-9-7-9--|
-9-11-12-14-12-11-5-|-4-|-5-7-9-11-9-7-9--|
-7-9--10-12-10-9--3-|-2-|-3-5-7-9--7-5-7--|
--------------------|---|-----------------|
Verses
||-------------------------------------------------------------------------|
||-------------------------------------------------------------------------|
||o------------------------------------------------------------------------|
||o--------------10-10-----------10-10---10-10---10-10---------------------|
||---------------10-10-----------10-10---10-10---10-10---------------------|
||-7-7-7-7-7-7-7-8--8--7-7-7-7-7-8--8--7-8--8--7-8--8--7-7-7-7-7-----------|

--------------------------------------------------------------------------||
--------------------------------------------------------------------------||
-------------------------------------------------------------------------o||
---------------10-10-----------10-10---10-10---7--7----------------------o||
---------------10-10-----------10-10---10-10---7--7-----------------------||
-7-7-7-7-7-7-7-8--8--7-7-7-7-7-8--8--7-8--8--7-5--5--5-5-5-5-5------------||
Chorus
---|---|---|---------|-------------|-------------|---------------|---------|
---|---|---|---------|-------------|-------------|---------------|(in------)
---|---|---|---------|-------------|-------------|---------------|(2nd-----)
-5-|-4-|-3-|-7--5--3-|-7-7-9-7-5-4-|-7-7-9-7-5-4-|-3-3-5-4---5-7-|-5-Chorus)
-5-|-4-|-3-|-7--5--3-|-7-7-7-5-3-2-|-7-7-7-5-3-2-|-3-3-3-2-7-5-7-|-5-------|
-3-|-2-|-1-|-5--3--1-|-5-5---------|-5-5---------|-1-1-----5-3-5-|-3-------|
then the verse again
then another chorus
interlude could be played in power chords or not, up to you
|-------------------------------|------------------------------------------|
|-------------------------------|------------------------------------------|
|-------------------------------|------------------------------------------|
|-------------------------------|---------------------5-5-5----------------|
|-2--4--5--4--7--5--4--10-9-7-5-|-2--4--5--4--7--5--4-3-3-3----------------|
|-0--2--3--2--5--3--2--8--7-5-3-|-0--2--3--2--5--3--2----------------------|

|-------------------------------|------------------------------------------|
|-------------------------------|------------------------------------------|
|-------------------------------|---------------------5--------------------|
|-------------------------------|---------------------5--------------------|
|-2--4--5--4--7--5--4--10-9-7-5-|-2--4--5--4--7--5--4-3--------------------|
|-0--2--3--2--5--3--2--8--7-5-3-|-0--2--3--2--5--3--2----------------------|
alternate verse (pm the open bottom string)
|------------------------------------------------------------------------|
|------------------------------------------------------------------------|
|------------------------------------------------------------------------|
|-9---------12-11-----------14-12-----------12-11--11\10-----------------|
|-7---------10-9------------12-10-----------10-9---9-\8------------------|
|---0-0-0-0-------0-0-0-0-0-------0-0-0-0-0------------------------------|

|-----------------------------------------------------|------------------|
|-----------------------------------------------------|last time---------|
|-----------------------------------------------------|------------------|
|-9---------12-11-----------14-12-----------12-11-9-7-|-12-7-9-7---------|
|-7---------10-9------------12-10-----------10-9--7-5-|-10-5-7-5---------|
|---0-0-0-0-------0-0-0-0-0-------0-0-0-0-0-------0---|------0-0---------|
rhythm for solo
|------------------------------|-----------|-----------------------------|
|------------------------------|-----------|-----------------------------|
|------------------------------|-----------|-----------------------------|
|-------------------------5----|-----------|------------------------5----|
|-------------------------3-5-7|-----------|------------------------3-5-7|
|-1-1-1-1-1-1-1-1-1-1-1-1---3-5|-----------|1-1-1-1-1-1-1-1-1-1-1-1---3-5|

|-----------|-------------------------------|----------------------------|
|-----------|-------------------------------|----------------------------|
|-----------|-------------------------------|-------------------5--------|
|-----------|-------------------------5-----|-------------------5---5----|
|-9--10--12\|-------------------------3-5-7-|-------------------3---5----|
|-7--8---10\|-1-1-1-1-1-1-1-1-1-1-1-1---3-5-|-1-1-1-1-1-1-1-1-------3----|

|----------------------|-------------------------------------------------|
|-5---7-----8-----10---|-5---7-----8-----12------------------------------|
|-7b9-9b11--10b12-12b14|-7b9-9b11--10b12-14b16---------------------------|
|----------------------|-------------------------------------------------|
|----------------------|-------------------------------------------------|
|----------------------|-------------------------------------------------|

|---------------------------------|
|---------------------------------|
|---------------------------------|
|---------------------------------|
|---------------------------------|
|-0-1-0-1-0-1-0-1-0-1-0-1-0-1-0-1-|then verse then chorus
Outro:
|----------------------------------------------------------|
|----------------------------------------------------------|
|----------------------------------------------------------|
|-7--7-7-7-7-10-7------------------------------------------|
|-7--7-7-7-7-10-7------------------------------------------|
|-5--5-5-5-5-8--5------------------------------------------|

key:
/ or \ = slide
tr = trill 
b= bend
~~~ = vibrato
Добавлено: 28.02.2012
Другие материалы по этой песне:

Страница создана 28.02.2012
http://primanota.ru/black-sabbath/ear-in-the-wall-chords.htm
Привет, Гость.
Предлагаем пройти революционный курс по гитаре.
Подарок от PrimaNota.Ru, забирай!