PrimaNota.ru - самый крупный в мире бесплатный архив песенных текстов, аккордов, табулатур и нот


Black Sabbath - After All The Dead - бас-таба, видео

Регистрация Запомнить меня
Войти через:  Facebook Google Twitter Vk Yandex Mail.ru

Black Sabbath - After All The Dead - бас-таба, видео

Печатать
Просмотров: 247
Artist:    Black Sabbath
Song:      After All (The Dead)
Album:     Dehumanizer / Radio City
Tabbed by: xHellbound


I was watching the Radio City DVD and realized there was no bass tab for this song.
I'm not a bassist, but I did my best from what I could see and hear. 
Corrections welcome!


~  - vibrato
p  - pull-off
\  - slide


Intro (2nd time)
|----------------|---------------------|
|----------------|---------------------|
|----7-6---8--7--|-----7-6---10-9-8-7--|
|--0-----0-------|--0------0-----------|

|----------------|----------------|
|----------------|----------------|
|----7-6---8--7--|--8-7-6---------|
|--0-----0-------|---------7---8--|



Verse 1 & 2
|----------------|
|----------------|
|-------------3--|
|--0----3-2-1----|

Fills
|-----------|---------------|
|-----------|----------6-7--|
|--7---6-7--|--7---6-5------|
|-----------|---------------|



Fast Riff (1st time only)
|-----------------------------------|
|-----------------------------------|
|-----------------------------------|
|--0--------------------------------| x3

|-----------------------------------|
|-----------------------------------|
|---------------------5------3------|
|--0--------------0-3----0-1---3-0--|

Fast Riff/Verse
|-----------------------------------|
|-----------------------------------|
|---------------------5------3------|
|--7-0-0-6-0-0-5--0-3----0-1---3-0--|



Bridge
|------------------------------------------|
|------------------------------------------|
|------------------------------------------|
|--4-4-4-4-4-4-4-4--2\4-5-5-5-5-5-5-5-5-0--|

|----------------------------------|
|----------------------------------|
|--4-4-4-4-4-4-4-4-7p5-------------|
|-----------------------5---7---7--|

|------------------------------------------|
|------------------------------------------|
|------------------------------------------|
|--4-4-4-4-4-4-4-4--2\4-5-5-5-5-5-5-5-5-0--|

|----------------------------------------|
|----------------------------------------|
|--4-4-4-4-4-4-4-4-7p5--3-3-3-3-3-3-3-3--|
|----------------------------------------|



Chorus
|---------------------------|---------------------------|
|---------------------------|---------------------------|
|------------------2---1----|------------------2---1----|
|--0----8----0-2-3---3---2--|--0----6----0-2-3---3---2--|



Heavy Riff
|-----------------------------|
|-----------------------------|
|-----5-4-3----------5---5-4--|
|--0-----------0-2-3---3------|



Verse 3
|----------------|
|----------------|
|-------------3--|
|--0----3-2-1----|

|-------------------------------|
|-------------------------------|
|-----5-7--------------------3--|
|--0------7-0-0-6-0-0--3-2-1----|



Live Outro
|-----------------------------|-----------------------|
|-----------------------------|-----------------------|
|-----5-4-3----------5---5-4--|--3-3-3-3-3/5-5-5-5/7--|
|--0-----------0-2-3---3------|-----------------------|

|-------------------------|
|-------------------------|
|--7-7-7-7-7-7-7-7~~--7/--|
|-------------------------|
Добавлено: 20.09.2013
Другие материалы по этой песне:
  • Аккорды и текст

Страница создана 20.09.2013
http://primanota.ru/black-sabbath/after-all-the-dead-2-chords.htm
Привет, Гость.
Предлагаем пройти революционный курс по гитаре.
Подарок от PrimaNota.Ru, забирай!