PrimaNota.ru - самый крупный в мире бесплатный архив песенных текстов, аккордов, табулатур и нот


Black Rebel Motorcycle Club - White Palms - текст песни, бас-таба, видео

Регистрация Запомнить меня
Войти через:  Facebook Google Twitter Vk Yandex Mail.ru

Black Rebel Motorcycle Club - White Palms - текст песни, бас-таба, видео

Печатать
Просмотров: 207
come in at 00:13
G|-------------------------------|   |----------------------|
D|-------------------------------|   |----------------------|
A|--------4------------4---------|x9 |4\--------4h6\--------|
E|4h6-6-6---6-6-6-4-6----6--4-6--|   |----------------------|

G|-------------------------------|   |----------------|
D|-------------------------------|   |-----------11\--|
A|--------4------------4---------|x6 |-----------10\--|
E|4h6-6-6---6-6-6-4-6----6--4-6--|   |----------------|

G|---------------------------------------------------------------|
D|---------------------------------------------------------------|
A|--------4------------4-----------------4-----------4-4--4-4----|
E|4h6-6-6---6-6-6-4-6----6--4-6--4h6-6-6---6-6-4-6-6----------6--|

G|-------------------------------|   |------------------------|
D|-------------------------------|   |------------------------|
A|--------4------------4---------|x5 |------------------------|
E|4h6-6-6---6-6-6-4-6----6--4-6--|   |4h6-6\----6--4h6\----6--|

G|-------------------------------|   |----------------------|
D|-------------------------------|   |----------------------|
A|--------4------------4---------|x5 |--------4-------------|
E|4h6-6-6---6-6-6-4-6----6--4-6--|   |4h6-6-6---6-6-6-4-6/--|

G|15-18-18-15-18-18-15-18-18-15-18-------------|
D|---------------------------------------------|
A|----------------------------------13-11-13\--|x3
E|---------------------------------------------|

G|15-18-18-15-18-18-15-18-------10------10------|
D|-------------------------10h12---10h12---10\--|
A|----------------------------------------------|
E|----------------------------------------------|

G|-------------------------------|   |--------6-----------6---6----|
D|-------------------------------|   |6h8-8-8---8-8-8-6-8---8-8-8--|
A|--------4------------4---------|x3 |-----------------------------|
E|4h6-6-6---6-6-6-4-6----6--4-6--|   |-----------------------------|

G|-------------------------------|   |------------------------------------|
D|-------------------------------|   |------------------------------------|
A|--------4------------4---------|x3 |--------4-----------4/16--16-16-16--|
E|4h6-6-6---6-6-6-4-6----6--4-6--|   |4h6-6-6---6-6-6-4-6-----------------|

G|----6-6------|
D|8-8-----8-6--|  
A|-------------|x16 
E|-------------|

G|-------------------------------|
D|-------------------------------|
A|--------4------------4---------|
E|4h6-6-6---6-6-6-4-6----6--4-6--|

G|---15-17-18-18-18-18-18-18--18--15------------|
D|17----------------------------------17-15-12--|
A|----------------------------------------------|
E|----------------------------------------------|

G|-------------------------------|   |--------6-----------6---6----|
D|-------------------------------|   |6h8-8-8---8-8-8-6-8---8-8-8--|
A|--------4------------4---------|x2 |-----------------------------|x4
E|4h6-6-6---6-6-6-4-6----6--4-6--|   |-----------------------------|

G|15-18-18-15-18-18-15-18-18-15-18-------------|
D|---------------------------------------------|
A|----------------------------------13-11-13\--|x7
E|---------------------------------------------|

G|15-18-18-15-18-18-15-18-18-18-18-18-18-18-18-18--|
D|-------------------------------------------------|
A|-------------------------------------------------|
E|-------------------------------------------------|

G|-------------------------------|   |--------6-6---------6-6--------|
D|-------------------------------|   |6h8-8-8-----8-8-6-8-----8-8-6--|
A|--------4-4---------4-4--------|x2 |-------------------------------|
E|4h6-6-6-----6-6-4-6-----6-6-4--|   |-------------------------------|

G|--------6-6---------6-6-----8-8--|
D|6h8-8-8-----8-8-6-8-----8-8------|
A|---------------------------------|
E|---------------------------------|

G|--------6-6---------6-6---------6-6---------6-6---------6-6---------6-6-6\--|
D|6h8-8-8-----8-8-6-8-----8-8-6-8-----8-8-6-8-----8-8-6-8-----8-8-6-8---------|
A|----------------------------------------------------------------------------|
E|----------------------------------------------------------------------------|

G|---------------------------------|  |---------------------------------|
D|---------------------------------|  |----------------------4h6--------|
A|--------4---------4-4---4h6------|  |--------4-4-------4-6-----6-4----|
E|4h6-6-6---6-6-4-6-----6-----4h6--|  |4h6-6-6-----6-4-6-------------6--|

G|--------------------------------|
D|--------------------------------|
A|--------4-4--------------4-4-6--|
E|4h6-6-6-----6-6--4h6-6-6--------|

G|-----------------|
D|-----------------|
A|--------4-4------| repeat untill the end 
E|4h6-6-6-----6-6--|
Добавлено: 18.03.2012
Другие материалы по этой песне:
  • Аккорды и текст

Страница создана 18.03.2012
http://primanota.ru/black-rebel-motorcycle-club/white-palms-chords.htm
Привет, Гость.
Предлагаем пройти революционный курс по гитаре.
Подарок от PrimaNota.Ru, забирай!