PrimaNota.ru - самый крупный в мире бесплатный архив песенных текстов, аккордов, табулатур и нот


Black Rebel Motorcycle Club - Vision - текст песни, таба, видео

Регистрация Запомнить меня
Войти через:  Facebook Google Twitter Vk Yandex Mail.ru

Black Rebel Motorcycle Club - Vision - текст песни, таба, видео

Печатать
Просмотров: 162
-------------------------------------------------------------------------------
                     Vision - Black Rebel Motorcycle Club
-------------------------------------------------------------------------------

Tabbed by: Ernestas Blaževič
E-mail: ernestas.blazevic@gmail.com

Tuning: EADGBe

Live version

e|---------------------------------------------------------------------------|
B|---------------------------------------------------------------------------|
G|---------------------------------------------------------------------------|
D|----7--7--7--7--7--7--7--7\6--6--6--6--6--7--7--6--6---7--7--9--7--7--7--7-|
A|---9--9--9--9-----------------------------------------9--9--9--9-----------|
E|---------------9--9--9--9----7--7--7--7--9--9--7--7---------------9--9--9--|

e|---------------------------------------------------------------------------|
B|---------------------------------------------------------------------------|
G|---------------------------------------------------------------------------|
D|----7\6--6--6--6--6--7--7--6--6---7--9--11-9--7--7--9--7\6--6--6--6--6--7--|
A|---------------------------------9--9--9--9--------------------------------|
E|---9----7--7--7--7--9--9--7--7---------------9--9--9--9----7--7--7--7--9---|

e|---------------------------------------------------------------------------|
B|---------------------------------------------------------------------------|
G|---------------------------------------------------------------------------|
D|----7--6--6---7--7--9--7--7--7--7--7\6--6--6--6--6--7--7--6--6-------------|
A|-------------9--9--9--9----------------------------------------------------|
E|---9--7--7---------------9--9--9--9----7--7--7--7--9--9--7--7--------------|

************************************

| /   slide up
| \   slide down
| h   hammer-on
| p   pull-off
| ~   vibrato
| +   harmonic
| x   Mute note
| b   Bend
| pb  Pre-bend
| br  Bend release
| pbr Pre-bend release
| brb Bend release bend

************************************
Добавлено: 08.08.2015
Другие материалы по этой песне:
  • Аккорды и текст

Страница создана 12.11.2014
http://primanota.ru/black-rebel-motorcycle-club/vision-chords.htm
Привет, Гость.
Предлагаем пройти революционный курс по гитаре.
Подарок от PrimaNota.Ru, забирай!