PrimaNota.ru - самый крупный в мире бесплатный архив песенных текстов, аккордов, табулатур и нот


Black Rebel Motorcycle Club - Pretend - таба, видео

Регистрация Запомнить меня
Войти через:  Facebook Google Twitter Vk Yandex Mail.ru

Black Rebel Motorcycle Club - Pretend - таба, видео

Печатать
Просмотров: 198
-------------------------------------------------------------------------------
                             Pretend - Black Rebel Motorcycle Club
-------------------------------------------------------------------------------
Tabbed by: Jeremy
Email: sstop1200@hotmail.com

Tuning: Standard

A5                     D5              A5                  E5
I dont ever want to pretend maybe this life wont hold you again
I dont ever want to pretend maybe this life wont hold you again

           A5                  D5
Cause baby we dont know, maybe we dont show
     A5                             E5
That I cant make you understand and I cant be a better man
        A5                               D5
So that I dont feel the summer going and I dont feel your heart has sung
    A5                               E5
And I wont be the one you love cause your whole world has got to stop

A5                   D5   A5                  E5
Cuttin me down with love, holdin me off this drug
Cuttin me down with love, holdin me off this drug

End on A

Riffs:
e|---------------------------------------------------------------------------|
B|---------------------------------------------------------------------------|
G|---------------------------------------------------------------------------|
D|11-11-11-11-11-9-9-9-7-7-7-7-7-4-4-4-11-11-11-11-11-9-9-9-2-2-2-2-2-2-2-2--|
A|-0--0--0--0--0-0-0-0-5-5-5-5-5-5-5-5--0--0--0--0--0-0-0-0-2-2-2-2-2-2-2-2--|
E|----------------------------------------------------------0-0-0-0-0-0-0-0--|

e|---------------------------------------------------------------------------------------|
B|----14-------14-------14----------------------------14-------14------14---9----9----9--|
G|------14-------14----------11-------11-------11-------14-------14----------9----9------|
D|-----------------------------12-------12-----------------------------------------------|
A|-12-------12-------12----------------------------12-------12------12----7----7----7----|
E|-------------------------10-------10-------10------------------------------------------|
Добавлено: 14.03.2012
Другие материалы по этой песне:
  • Аккорды и текст

Страница создана 14.03.2012
http://primanota.ru/black-rebel-motorcycle-club/pretend-chords.htm
Привет, Гость.
Предлагаем пройти революционный курс по гитаре.
Подарок от PrimaNota.Ru, забирай!