PrimaNota.ru - самый крупный в мире бесплатный архив песенных текстов, аккордов, табулатур и нот


Black Rebel Motorcycle Club - Need Some Air - таба, видео

Регистрация Запомнить меня
Войти через:  Facebook Google Twitter Vk Yandex Mail.ru

Black Rebel Motorcycle Club - Need Some Air - таба, видео

Печатать
Просмотров: 247
HEY !! Here's my first tab.. i've not figured out the whole song. but i hope you can use this anyway.


Intro:

e----------------------------|
b----------------------------|
G--3-3-3-3-3-3-3-3-x-6-x-9-8-|          Something like that. i'm not sure
D--3-3-3-3-3-3-3-3-x-6-x-9-8-|          about he play chords or power chords.
A--1-1-1-1-1-1-1-1-x-4-x-7-6-|          X4
E----------------------------|


1st. verse.

e----------------------------|
b----------------------------|
G----------------------------|          Don't play anything. only sing.
D----------------------------|
A----------------------------|
E----------------------------|

when he sing ''i need some air'' play the intro x2

e----------------------------|
b----------------------------|
G--3-3-3-3-3-3-3-3-x-6-x-9-8-|
D--3-3-3-3-3-3-3-3-x-6-x-9-8-|
A--1-1-1-1-1-1-1-1-x-4-x-7-6-|
E----------------------------|

When he sings ''the only word you know is please please.....'' play:

e-----------------------------|
b-----------------------------|
G-x-x-x-x-x-x-x-x-x-x-x-x-x-x-|
D-x-x-x-x-x-x-x-x-x-x-x-x-x-x-|    i don't know how many times. :S.. count.
A-x-x-x-x-x-x-x-x-x-x-x-x-x-x-|
E-x-x-x-x-x-x-x-x-x-x-x-x-x-x-|

and then intro again:)

e----------------------------|
b----------------------------|
G--3-3-3-3-3-3-3-3-x-6-x-9-8-|
D--3-3-3-3-3-3-3-3-x-6-x-9-8-|
A--1-1-1-1-1-1-1-1-x-4-x-7-6-|
E----------------------------|


and the  ''oh, oh'' part i think goes something like this:

e---------------------------|
b---------------------------|
G-4-4-6-6-------------------|
D-4-4-6-6--4-4--7-7-7-------|
A-1-1-4-4--4-4--7-7-7-------|     under whole uh uh part.
E----------2-2--5-5-5-------|


and then a pre-chorus i call it.

e----------------------------|
d--3-------------------------|
G----4--2--4--2--4-----------|        x4
D-------------------3--2--0--|
A----------------------------|
E----------------------------|

and after that he somtimes makes a scratch or slide up. but that i can't write down.

and the outro:


e------------------------|
b------------------------|
G-4-4-6-6----------------|
D-4-4-6-6--4-4--7-7-7--3-|
A-1-1-4-4--4-4--7-7-7--3-|
E----------2-2--5-5-5--1-|


that was it all . . the small details i don't have perfectly :(

but write a comment.. i'm only 12 sooo that not perfectly i think----

;) see you..
Добавлено: 17.07.2012
Другие материалы по этой песне:

Страница создана 23.06.2012
http://primanota.ru/black-rebel-motorcycle-club/need-some-air-chords.htm
Привет, Гость.
Предлагаем пройти революционный курс по гитаре.
Подарок от PrimaNota.Ru, забирай!