PrimaNota.ru - самый крупный в мире бесплатный архив песенных текстов, аккордов, табулатур и нот


Black Rebel Motorcycle Club - Devilss Waiting - таба, видео

Регистрация Запомнить меня
Войти через:  Facebook Google Twitter Vk Yandex Mail.ru

Black Rebel Motorcycle Club - Devilss Waiting - таба, видео

Печатать
Просмотров: 219
Black Rebel Motorcycle club - Devil's Waiting
Tabbed by Joe Hemming

This is not exactly how Peter Hayes plays it, but this is how i worked it out by trial
error and its pretty close.
The song needs to be finger picked using your thumb on the lower notes and your fingers
the high, this can be a bit tricky at first but after playing it slowly to start with
get used to your fingers doing different things at the same time. At first try just 
the lower notes and the chords to get the melody then add in the higher notes.

Its tuned to open D so thats:
D A D F# A D
Then a capo on the third fret

Intro
D |---0---0--0---0--0----0----0----0-----------------|
A |-5--5------------------0---------0----------------|
f#|--------------------------------------------------|
D |---------4--2--0-------------0--------------------|
A |-5----5-----------0h2----0---------0--------------|
D |--------------------------------------------------|

D |---0----0-7--7---------------0--------------------|
A |-9--9---------0-------0----5---5------------------|
f#|--------------------------------------------------|
D |------0---7-----0---2/4----------0----------------|
A |-9----------------------0--5----------------------|
D |--------------------------------------------------|

Verse
D |-----0----0---0---(0)---0------0----0----0----------|
A |------0-------------------------0---------0---------|
f#|----------------------------------------------------|
D |-2/4----4---4---2----0----------------0-------------|
A |---------------------------0h2----0---------0-------|
D |----------------------------------------------------|

D |---0----0-7--7---------------0----------------------|
A |-9--9---------0-------0----5---5------------------*-|
f#|----------------------------------------------------|
D |------0---7-----0---2/4----------0------------------|
A |-9----------------------0--5----------------------*-|
D |----------------------------------------------------|

Chorus
D |-9-9-------0-----9-9------0-----9-9-----5-5-------------------0-------|
A |----0----9--9-----------9--9-------0-------0--------2----0--5--5----*-|
f#|-----------------------------------------------------0----------------|
D |-9----0----------9-9--0---------9----0--5----0------------------------|
A |---------9----0---------9----0------------------0h2----0----5----0--*-|
D |----------------------------------------------------------------------|

Bridge
|-----------0----------------------0-----7-7------0--------------------0-----|
|----5----5--5---------2-----0---9--9-----------9--9---------2----0--5--5---*|
|-----------------------0-------------------------------------0--------------|
|-4-5------------------------------------7-7-0---------------------------0---|
|------0--5----0--0h2-----0------9----0---------9----0---0h2----0----5------*|
|----------------------------------------------------------------------------|
Добавлено: 27.07.2012
Другие материалы по этой песне:
  • Аккорды и текст

Страница создана 27.07.2012
http://primanota.ru/black-rebel-motorcycle-club/devilss-waiting-chords.htm
Привет, Гость.
Предлагаем пройти революционный курс по гитаре.
Подарок от PrimaNota.Ru, забирай!