PrimaNota.ru - самый крупный в мире бесплатный архив песенных текстов, аккордов, табулатур и нот


Black Pyramid - And The Gods Made War - таба, видео

Регистрация Запомнить меня
Войти через:  Facebook Google Twitter Vk Yandex Mail.ru

Black Pyramid - And The Gods Made War - таба, видео

Печатать
Просмотров: 78
Уроки эстрадного вокала в Санкт-Петербурге
-------------------------------------------------------------------------------
                             Black Pyramid - ...And the Gods Made War
-------------------------------------------------------------------------------
Tabbed by: DeBorrelPinda
E-mail: deborrelpinda@hotmail.com

Tuning: DGCFAD

You can also play this in Standard E-tuning, but the inversions of the 
power-chords are only possible and sound nice in D-tuning. For the E-tuning,
just move all the fret numbers two steps back.
And these are also nice to play in the transition to next song of the album 
called Vision of Gehenna. Enjoy!

Rhythm guitar:

      A#major or inversion
e|---------------------------------------------------------------------------|
B|---------------------------------------------------------------------------|
G|---------------------------------------------------------------------------|
D|---(10)--------------------------------------------------------------------|
A|----10---------3-----------------------------------------------------------|
E|----8----------3-----------------------------------------------------------|


Lead guitar

Repeat 5x
e|---------------------------------------------------------------------------|
B|---------------------------------------------------------------------------|
G|---------------------------------------------------------------------------|
D|---10-11-10-8----8-10-8----------------------------------------------------|
A|--------------11--------11-10----------------------------------------------|
E|---------------------------------------------------------------------------|

Repeat 2x
e|---------------------------------------------------------------------------|
B|---------------------------------------------------------------------------|
G|---------------------------------------------------------------------------|
D|--------------------8-------------------------------8----------------------|
A|---10-11-10-8-10-11---11-10-8------10-11-10-8-10-11---11p10p8-10-----------|
E|---------------------------------------------------------------------------|

Repeat 4x
e|---------------------------------------------------------------------------|
B|---------------------------------------------------------------------------|
G|---------------------------------------------------------------------------|
D|---10-11-10-8----8-10-8----------------------------------------------------|
A|--------------11--------11-10----------------------------------------------|
E|---------------------------------------------------------------------------|

Repeat 2x
e|---------------------------------------------------------------------------|
B|---------------------------------------------------------------------------|
G|---------------------------------------------------------------------------|
D|--------------------8-------------------------------8----------------------|
A|---10-11-10-8-10-11---11-10-8------10-11-10-8-10-11---11p10p8-10-----------|
E|---------------------------------------------------------------------------|

Repeat 4x
Guitar 1
e|---------------------------------------------------------------------------|
B|---------------------------------------------------------------------------|
G|---------------------------------------------------------------------------|
D|---10-11-10-8----8-10-8----------------------------------------------------|
A|--------------11--------11-10----------------------------------------------|
E|---------------------------------------------------------------------------|

Guitar 2                                      Variation
e|---------------------------------------------------------------------------|
B|------13-14-13-11----11-13-11-------------13-14-13-11----11-13-13p11-------|
G|------------------13----------13-12-------------------13-------------13\12-|
D|---------------------------------------------------------------------------|
A|---------------------------------------------------------------------------|
E|---------------------------------------------------------------------------|




************************************

| /   slide up
| \   slide down
| h   hammer-on
| p   pull-off
| ~   vibrato
| +   harmonic
| x   Mute note
| b   Bend
| pb  Pre-bend
| br  Bend release
| pbr Pre-bend release
| brb Bend release bend

************************************
Добавлено: 03.01.2016
Другие материалы по этой песне:
  • Аккорды и текст

Страница создана 03.01.2016
http://primanota.ru/black-pyramid/and-gods-made-war-chords.htm
Привет, Гость.
Предлагаем пройти революционный курс по гитаре.
Подарок от PrimaNota.Ru, забирай!