PrimaNota.ru - самый крупный в мире бесплатный архив песенных текстов, аккордов, табулатур и нот


Black Pistol Fire - Suffocation Blues - таба, видео

Регистрация Запомнить меня
Войти через:  Facebook Google Twitter Vk Yandex Mail.ru

Black Pistol Fire - Suffocation Blues - таба, видео

Печатать
Просмотров: 539
-------------------------------------------------------------------------------
                  Suffocation Blues - Black Pistol Fire
-------------------------------------------------------------------------------
Tabbed by:
Email:

Tuning: Standard



        Intro
e|----------------------------------------------------------|
B|.--------------------------------------------------------.|
G|----------------------------------------------------------|x4
D|-----------------5b---------------------------------------|
A|.---------7-5-----------7p5-7----------------------------.|
E|-----0--------7-------------------3h5p3-5p3-5p------------|

e|------------------------------|
B|------------------------------|
G|------------------------------|
D|-----9--9-------5------7------|
A|-----9--9-------5------7------|
E|-----7--7-------3------5------|




        Verse 1
e|---x---x---x---x-----5---5---5---5---|                        -|
B|---8---8---8---8-----5---5---5---5---|                         |
G|---9---9---9---9-----5---5---5---5---|                         |
D|---9---9---9---9-----7---7---7---7---|                         |
A|---7---7---7---7-----7---7---7---7---|                         |
E|---x---x---x---x-----5---5---5---5---|                         |
                                                                 |x2
e|---x---x---x-x---x---x---x-x---x---x--x-x---x-x--x--x--x--|    |
B|---8---8---x-x---7---7---x-x---8---8--8-8---x-x--7--7--7--|    |
G|---9---9---x-x---8---8---x-x---9---9--9-9---x-x--8--8--8--|    |      
D|---9---9---x-x---7---7---x-x---9---9--9-9---x-x--7--7--7--|    |
A|---7---7---x-x---9---9---x-x---7---7--7-7---x-x--9--9--9--|    |
E|---x---x---x-x---7---7---x-x---x---x--x-x---x-x--7--7--7--|   -|





        Chorus
e|----------------------------------------------------------|
B|.--------------------------------------------------------.|
G|----------------------------------------------------------|x4
D|-----------------5b---------------------------------------|
A|.---------7-5-----------7p5-7----------------------------.|
E|-----0--------7-------------------3h5p3-5p3-5p------------|

e|------------------------------|
B|------------------------------|
G|------------------------------|
D|-----9--9-------5------7------|
A|-----9--9-------5------7------|
E|-----7--7-------3------5------|


        Verse 2
e|---x---x---x---x-----5---5---5---5---|                        -|
B|---8---8---8---8-----5---5---5---5---|                         |
G|---9---9---9---9-----5---5---5---5---|                         |
D|---9---9---9---9-----7---7---7---7---|                         |
A|---7---7---7---7-----7---7---7---7---|                         |
E|---x---x---x---x-----5---5---5---5---|                         |
                                                                 |x2
e|---x---x---x-x---x---x---x-x---x---x--x-x---x-x--x--x--x--|    |
B|---8---8---x-x---7---7---x-x---8---8--8-8---x-x--7--7--7--|    |
G|---9---9---x-x---8---8---x-x---9---9--9-9---x-x--8--8--8--|    |      
D|---9---9---x-x---7---7---x-x---9---9--9-9---x-x--7--7--7--|    |
A|---7---7---x-x---9---9---x-x---7---7--7-7---x-x--9--9--9--|    |
E|---x---x---x-x---7---7---x-x---x---x--x-x---x-x--7--7--7--|   -|



        Chorus
e|----------------------------------------------------------|
B|.--------------------------------------------------------.|
G|----------------------------------------------------------|x4
D|-----------------5b---------------------------------------|
A|.---------7-5-----------7p5-7----------------------------.|
E|-----0--------7-------------------3h5p3-5p3-5p------------|

e|------------------------------|
B|------------------------------|
G|------------------------------|
D|-----9--9-------5------7------|
A|-----9--9-------5------7------|
E|-----7--7-------3------5------|



        Bridge - Hold each chord for a bar, pick individual notes occaisonally - 
listen to the recording for exact variations
e|---x--------5---|
B|---8--------5---|
G|---9--------5---|x4
D|---9--------7---|
A|---7--------7---|
E|---x--------5---|

e|---x---x--x-x---x-x--x--x--x----------|
B|---8---8--8-8---x-x--7--7--7----------|
G|---9---9--9-9---x-x--8--8--8----------|       
D|---9---9--9-9---x-x--7--7--7----------|
A|---7---7--7-7---x-x--9--9--9----------|
E|---x---x--x-x---x-x--7--7--7-----3b---|



        Chorus - Fades out
e|----------------------------------------------------------|
B|.--------------------------------------------------------.|
G|----------------------------------------------------------|
D|-----------------5b---------------------------------------|
A|.---------7-5-----------7p5-7----------------------------.|
E|-----0--------7-------------------3h5p3-5p3-5p------------|

e|------------------------------|
B|------------------------------|
G|------------------------------|
D|-----9--9-------5------7------|
A|-----9--9-------5------7------|
E|-----7--7-------3------5------|



************************************

| /   slide up
| \   slide down
| h   hammer-on
| p   pull-off
| ~   vibrato
| +   harmonic
| x   Mute note
| b   Bend
| pb  Pre-bend
| br  Bend release
| pbr Pre-bend release
| brb Bend release bend

************************************

Black Pistol Fire website - http://blackpistolfire.com/
Добавлено: 19.10.2013
Другие материалы по этой песне:

Страница создана 19.10.2013
http://primanota.ru/black-pistol-fire/suffocation-blues-chords.htm
Привет, Гость.
Предлагаем пройти революционный курс по гитаре.
Подарок от PrimaNota.Ru, забирай!