PrimaNota.ru - самый крупный в мире бесплатный архив песенных текстов, аккордов, табулатур и нот


Black Oak Arkansas - Memories At The Window - таба, бас-таба, видео

Регистрация Запомнить меня
Войти через:  Facebook Google Twitter Vk Yandex Mail.ru

Black Oak Arkansas - Memories At The Window - таба, бас-таба, видео

Печатать
Просмотров: 139
Уроки эстрадного вокала в Санкт-Петербурге
Guitar 1


     W                   W                   W                 
E||-------------------|-------------------|-------------------|
B||-------------------|-------------------|-------------------|
G||-------------------|-------------------|-------------------|
D||-------------------|-------------------|-------------------|
A||-------------------|-------------------|-------------------|
E||-------------------|-------------------|-------------------|


  W                   W                   W                   W                 
-------------------|-------------------|-------------------|-------------------|
-------------------|-------------------|-------------------|-------------------|
-------------------|-------------------|-------------------|-------------------|
-------------------|-------------------|-------------------|-------------------|
-------------------|-------------------|-------------------|-------------------|
-------------------|-------------------|-------------------|-------------------|


  W                   W                   W                   W                 
-------------------|-------------------|-------------------|-------------------|
-------------------|-------------------|-------------------|-------------------|
-------------------|-------------------|-------------------|-------------------|
-------------------|-------------------|-------------------|-------------------|
-------------------|-------------------|-------------------|-------------------|
-------------------|-------------------|-------------------|-------------------|


  W                   W                   W                 
-------------------|-------------------|-------------------|
-------------------|-------------------|-------------------|
-------------------|-------------------|-------------------|
-------------------|-------------------|-------------------|
-------------------|-------------------|-------------------|
-------------------|-------------------|-------------------|


  H          H            H         E    Q.         H          H          
-----------------------|-------------------------|-----------------------|
-----------------------|-------------------------|-----------------------|
--9~--------11~--------|--9~--------9h--11~------|--9~--------11~--------|
-----------------------|-------------------------|-----------------------|
-----------------------|-------------------------|-----------------------|
-----------------------|-------------------------|-----------------------|


  H         H             H          H             H          H          
----------------------|------------------------|------------------------|
----------------------|-------------10~--------|--12~--------10~--------|
--9~--------9~--------|--11~-------------------|------------------------|
----------------------|------------------------|------------------------|
----------------------|------------------------|------------------------|
----------------------|------------------------|------------------------|


   H             H             H            H          
---------------------------|--------------------------|
-------------10g12~--------|--10~---------------------|
--11~----------------------|-------------9g11~--------|
---------------------------|--------------------------|
---------------------------|--------------------------|
---------------------------|--------------------------|


  H            H            H         E    Q.         H          H          
-------------------------|-------------------------|-----------------------|
-------------------------|-------------------------|-----------------------|
--9~--------9g11~--------|--9~--------9h--11~------|--9~--------11~--------|
-------------------------|-------------------------|-----------------------|
-------------------------|-------------------------|-----------------------|
-------------------------|-------------------------|-----------------------|


  H         H             H          H             H          H          
----------------------|------------------------|------------------------|
----------------------|-------------10~--------|--12~--------10~--------|
--9~--------9~--------|--11~-------------------|------------------------|
----------------------|------------------------|------------------------|
----------------------|------------------------|------------------------|
----------------------|------------------------|------------------------|


   H             H             H         E    E   Q      
---------------------------|----------------------------|
-------------10g12~--------|--10~----------------10~----|
--11~----------------------|-------------9h--11---------|
---------------------------|----------------------------|
---------------------------|----------------------------|
---------------------------|----------------------------|


  H          H            H         E    E   Q        H          H          
-----------------------|---------------------------|-----------------------|
-----------------------|--------------------10~----|-----------------------|
--9~--------11~--------|--9~--------9h--11---------|--9~--------11~--------|
-----------------------|---------------------------|-----------------------|
-----------------------|---------------------------|-----------------------|
-----------------------|---------------------------|-----------------------|


  H         H             H          H             H          H          
----------------------|------------------------|------------------------|
----------------------|-------------10~--------|--12~--------10~--------|
--9~--------9~--------|--11~-------------------|------------------------|
----------------------|------------------------|------------------------|
----------------------|------------------------|------------------------|
----------------------|------------------------|------------------------|


   H          H             H           Q     Q        W                  
------------------------|--------------------------|---------------------|
-------------10~--------|--12br--------10----12----|--10~----------------|
--11~-------------------|--------------------------|---------------------|
------------------------|--------------------------|---------------------|
------------------------|--------------------------|---------------------|
------------------------|--------------------------|---------------------|


  Q     Q     Q     Q        W                   W                 
--------------------------|-------------------|-------------------|
--L~----L~----L~----L~----|-------------------|-------------------|
--------------------------|-------------------|-------------------|
--------------------------|-------------------|-------------------|
--------------------------|-------------------|-------------------|
--------------------------|-------------------|-------------------|


  H            H            H         E    Q.          H             H          
-------------------------|-------------------------|---------------------------|
-------------------------|-------------------------|--10~--------10g12~--------|
--9~--------9g11~--------|--9~--------9h--11~------|---------------------------|
-------------------------|-------------------------|---------------------------|
-------------------------|-------------------------|---------------------------|
-------------------------|-------------------------|---------------------------|


   H        H              H          H            H           Q     Q     
---------------------|-------------------------|--------------------------|
--10-----------------|---------------10--------|--12br--------10----12----|
------------9--------|--9g11~------------------|--------------------------|
---------------------|-------------------------|--------------------------|
---------------------|-------------------------|--------------------------|
---------------------|-------------------------|--------------------------|


   H            H            H         E    Q.         H         E    Q.       
--------------------------|-------------------------|-------------------------|
--10~---------------------|-------------------------|-------------------------|
-------------9g11~--------|--9~--------9h--11~------|--9~--------9h--11~------|
--------------------------|-------------------------|-------------------------|
--------------------------|-------------------------|-------------------------|
--------------------------|-------------------------|-------------------------|


  H        E    E   Q        W                    H         E    E   Q      
--------------------------|--------------------|---------------------------|
-------------------10~----|--------------------|--------------------10~----|
--9--------9h--11---------|--9~----------------|--L~--------9h--11---------|
--------------------------|--------------------|---------------------------|
--------------------------|--------------------|---------------------------|
--------------------------|--------------------|---------------------------|


  H            H            H         H             H          H          
-------------------------|----------------------|------------------------|
-------------------------|----------------------|-------------10~--------|
--9~--------9g11~--------|--9~--------9~--------|--11~-------------------|
-------------------------|----------------------|------------------------|
-------------------------|----------------------|------------------------|
-------------------------|----------------------|------------------------|


   H          H               H            H             H          Q     Q     
------------------------|----------------------------|-------------------------|
--12~--------10~--------|---------------8g10~--------|--12~--------10----------|
------------------------|--9g11~---------------------|-------------------11----|
------------------------|----------------------------|-------------------------|
------------------------|----------------------------|-------------------------|
------------------------|----------------------------|-------------------------|


  H         E    E   Q        H         E    E   Q      
---------------------------|---------------------------|
--------------------10~----|--------------------10~----|
--9~--------9h--11---------|--9~--------9h--11---------|
---------------------------|---------------------------|
---------------------------|---------------------------|
---------------------------|---------------------------|


  H            H            H         H             H          H          
-------------------------|----------------------|------------------------|
-------------------------|----------------------|-------------10~--------|
--9~--------9g11~--------|--9~--------9~--------|--11~-------------------|
-------------------------|----------------------|------------------------|
-------------------------|----------------------|------------------------|
-------------------------|----------------------|------------------------|


   H          H               H             H          
------------------------|-----------------------------|
--12~--------10~--------|---------------10g12~--------|
------------------------|--9g11~----------------------|
------------------------|-----------------------------|
------------------------|-----------------------------|
------------------------|-----------------------------|


   H         E    E   Q        H          H          
----------------------------|-----------------------|
--10~----------------10~----|-----------------------|
-------------9h--11---------|--9~--------11~--------|
----------------------------|-----------------------|
----------------------------|-----------------------|
----------------------------|-----------------------|


  H         E    E   Q        H          H            H         H          
---------------------------|-----------------------|----------------------|
--------------------10~----|-----------------------|----------------------|
--9~--------9h--11---------|--9~--------11~--------|--9~--------9~--------|
---------------------------|-----------------------|----------------------|
---------------------------|-----------------------|----------------------|
---------------------------|-----------------------|----------------------|


   H          H             H          H             H          H          
------------------------|------------------------|------------------------|
-------------10~--------|--12~--------10~--------|-------------10~--------|
--11~-------------------|------------------------|--11~-------------------|
------------------------|------------------------|------------------------|
------------------------|------------------------|------------------------|
------------------------|------------------------|------------------------|


   H        E    E   Q        H          H            H         E    Q.       
---------------------------|-----------------------|-------------------------|
--12----------------10~----|-----------------------|-------------------------|
------------9h--11---------|--9~--------11~--------|--9~--------9h--11~------|
---------------------------|-----------------------|-------------------------|
---------------------------|-----------------------|-------------------------|
---------------------------|-----------------------|-------------------------|


   H          H             H          H            H            H          
------------------------|------------------------|-------------------------|
--10~--------12~--------|--10~-------------------|-------------------------|
------------------------|-------------11~--------|--9~--------9g11~--------|
------------------------|------------------------|-------------------------|
------------------------|------------------------|-------------------------|
------------------------|------------------------|-------------------------|


  H         E    Q.          H             H             H        H         
-------------------------|---------------------------|---------------------|
-------------------------|--10~--------10g12~--------|--10-----------------|
--9~--------9h--11~------|---------------------------|------------9--------|
-------------------------|---------------------------|---------------------|
-------------------------|---------------------------|---------------------|
-------------------------|---------------------------|---------------------|


     H          H            H           Q     Q        H            H          
-------------------------|--------------------------|--------------------------|
---------------10--------|--12br--------10----12----|--10~---------------------|
--9g11~------------------|--------------------------|-------------9g11~--------|
-------------------------|--------------------------|--------------------------|
-------------------------|--------------------------|--------------------------|
-------------------------|--------------------------|--------------------------|


   H         E  Q.        H           H           H         Q    Q     
-----------------------|-----------------------|----------------------|
--10~------------------|-----------------------|----------------------|
-----------------------|-----------------------|----------------------|
-----------------------|-----------------------|--9--------11----9----|
-----------------------|--7--------9g11--------|----------------------|
-----------------------|-----------------------|----------------------|


  H           H           H         Q    Q       H          H         
-----------------------|----------------------|----------------------|
-----------------------|----------------------|----------------------|
-----------------------|----------------------|----------------------|
-----------------------|--9--------11----9----|-----------7g9--------|
--7--------9g11--------|----------------------|--5-------------------|
-----------------------|----------------------|----------------------|


  H          H           H          H           H          Q    Q     
----------------------|----------------------|-----------------------|
----------------------|----------------------|-----------------------|
-----------7g9--------|--7-------------------|-----------------------|
--7-------------------|-----------7g9--------|--7---------------7----|
----------------------|----------------------|-----------7g9---------|
----------------------|----------------------|-----------------------|


  H           H           H         Q    Q       H           H         
-----------------------|----------------------|-----------------------|
-----------------------|----------------------|-----------------------|
-----------------------|----------------------|-----------------------|
-----------------------|--9--------11----9----|-----------------------|
--7--------9g11--------|----------------------|--7--------9g11--------|
-----------------------|----------------------|-----------------------|


  H         Q    Q       H          H           H          H         
----------------------|----------------------|----------------------|
----------------------|----------------------|----------------------|
----------------------|----------------------|-----------7g9--------|
--9--------11----9----|-----------7g9--------|--7-------------------|
----------------------|--5-------------------|----------------------|
----------------------|----------------------|----------------------|


  H          H           H          Q    Q       W                 
----------------------|-----------------------|-------------------|
----------------------|-----------------------|-------------------|
--7-------------------|-----------------------|-------------------|
-----------7g9--------|--7---------------7----|--7----------------|
----------------------|-----------7g9---------|-------------------|
----------------------|-----------------------|-------------------|


  H.           Q         W                   H.            Q      
---------------------|--------------------|---------------12S----|
---------------7S----|--10----------------|----------------------|
---------------------|--------------------|----------------------|
---------------------|--------------------|----------------------|
---------------------|--------------------|----------------------|
---------------------|--------------------|----------------------|


   W                   H.            Q         W                 
--17----------------|---------------17S----|--29----------------|
--------------------|----------------------|--------------------|
--------------------|----------------------|--------------------|
--------------------|----------------------|--------------------|
--------------------|----------------------|--------------------|
--------------------|----------------------|--------------------|


  H.            Q         W                   H        E   E    Q     
---------------17S----|--29----------------|-------------------------|
----------------------|--------------------|--------------15S--10----|
----------------------|--------------------|-------------------------|
----------------------|--------------------|-------------------------|
----------------------|--------------------|-------------------------|
----------------------|--------------------|-------------------------|


   H          Q     E      E     E.  S  Q.      E    Q     
------------------------------|--------10-----------------|
-------------10--------10g12--|--L-------------10S--12----|
--11~--------------11---------|---------------------------|
------------------------------|---------------------------|
------------------------------|---------------------------|
------------------------------|---------------------------|


  H         E   Q    E      Q    E.   S Q     E    E   
--8----------------------|----------------------------|
-----------10S--8--------|-------8~-----8~------------|
---------------------9~--|--L-----------------9S--11--|
-------------------------|----------------------------|
-------------------------|----------------------------|
-------------------------|----------------------------|


   S S  Q     E   Q     E   E      Q     Q.     Q    E    
--------------------------------|-------10-----------8S--|
-------10~----x--10~----x--10~--|--L------------8--------|
---L----------------------------|------------------------|
--------------------------------|------------------------|
--------------------------------|------------------------|
--------------------------------|------------------------|


  E   E    E  E   E   E  Q       Q    Q    Q     E   E    
--L--(0)----------------------|------------8~------------|
----------10-----10S--8-------|--8------------------11~--|
-------------------------9----|--------------------------|
------------------------------|--------------------------|
------------------------------|--------------------------|
------------------------------|--------------------------|


  Q    Q     Q     Q        Q    Q      Q     Q       E  E.  S E  Q.      E   
-------------------------|--------------------7----|-----5-------------------|
--L----5S----3S----2S----|--3-----------8----------|-----------5--7S------0--|
-------------3S----2S----|--3----5S----(8)---------|-------------------------|
-------------------------|-------------------------|-------------------------|
-------------------------|-------------------------|-------------------------|
-------------------------|-------------------------|-------------------------|


  E  E   E.  S Q    Q       W                   H.           S E.    
---------------5----7----|--5----------------|----------------------|
-----5S--7---------------|-------------------|-----------------8S---|
-------------------------|-------------------|----------------------|
-------------------------|-------------------|----------------------|
-------------------------|-------------------|----------------------|
-------------------------|-------------------|----------------------|


   W                    W                       W                 
---------------------|-------------------|--12g17----------------|
--10~----------------|-------------------|-----------------------|
---------------------|-------------------|-----------------------|
---------------------|-------------------|-----------------------|
---------------------|-------------------|-----------------------|
---------------------|-------------------|-----------------------|


  H.           E.   S      W                   H.           E.   S   
-------------------17S-|--29----------------|-------------------17S-|
-----------------------|--------------------|-----------------------|
-----------------------|--------------------|-----------------------|
-----------------------|--------------------|-----------------------|
-----------------------|--------------------|-----------------------|
-----------------------|--------------------|-----------------------|


   H         E   E  E  E      H          E   Q.        
--29--------12--10-----x--|---------------------------|
--------------------------|--12~--------10------------|
--------------------------|-----------------11S~------|
--------------------------|---------------------------|
--------------------------|---------------------------|
--------------------------|---------------------------|


  H            H            H         E    Q.         H         E    Q.       
-------------------------|-------------------------|-------------------------|
-------------------------|-------------------------|-------------------------|
--9~--------9g11~--------|--9~--------9h--11~------|--9~--------9h--11~------|
-------------------------|-------------------------|-------------------------|
-------------------------|-------------------------|-------------------------|
-------------------------|-------------------------|-------------------------|


  H         H            E    Q.       Q    Q       W                 
----------------------|--------------------------|-------------------|
----------------------|--------------------------|-------------------|
--9~--------9~--------|--9h--11~------11---------|-------------------|
----------------------|--------------------------|-------------------|
----------------------|--------------------------|-------------------|
----------------------|--------------------------|-------------------|


  W                    E   E  E   H          E      W                  
-------------------|----------------------------|---------------------|
-------------------|--12--10-----12br--------L--|--10~----------------|
-------------------|----------------------------|---------------------|
-------------------|----------------------------|---------------------|
-------------------|----------------------------|---------------------|
-------------------|----------------------------|---------------------|


   W                    W                    W                 
--------------------|---------------------|-------------------|
---L----------------|--14~----------------|--L----------------|
--------------------|---------------------|-------------------|
--------------------|---------------------|-------------------|
--------------------|---------------------|-------------------|
--------------------|---------------------|-------------------|


   H         H           H        H           H        H         
----------------------|--------------------|--------------------|
--15~-----------------|--------------------|--------------------|
----------------------|--------------------|--------------------|
----------------------|--------------------|--------------------|
----------------------|--------------------|--------------------|
----------------------|--------------------|--------------------|


      E   E  E   E   E   E   E  E      W                  
----------------12b-----12--10-----|---------------------|
--10g12--10------------------------|--12b----------------|
-----------------------------------|---------------------|
-----------------------------------|---------------------|
-----------------------------------|---------------------|
-----------------------------------|---------------------|


  Q      H.                W                   W                 
------------------------|-------------------|-------------------|
--L----(14)~------------|--L----------------|-------------------|
------------------------|-------------------|-------------------|
------------------------|-------------------|-------------------|
------------------------|-------------------|-------------------|
------------------------|-------------------|-------------------|


  W                   W                   W                 
-------------------|-------------------|-------------------|
-------------------|-------------------|-------------------|
-------------------|-------------------|-------------------|
-------------------|-------------------|-------------------|
-------------------|-------------------|-------------------|
-------------------|-------------------|-------------------|


  E    E   E    E   E    E   Q          W                  
----------------------------12br----|---------------------|
----------10h--12--10h--12----------|--10~----------------|
--9h--11----------------------------|---------------------|
------------------------------------|---------------------|
------------------------------------|---------------------|
------------------------------------|---------------------|


  Q     Q     Q     Q        W                                     
--------------------------|-------------------|-------------------|
--L~----L~----L~----L~----|--L----------------|-------------------|
--------------------------|-------------------|-------------------|
--------------------------|-------------------|-------------------|
--------------------------|-------------------|-------------------|
--------------------------|-------------------|-------------------|


  H           H            H         E    Q.         Q     Q      E    Q.      
------------------------|-------------------------|---------------------------|
------------------------|-------------------------|-------10~----10h--12------|
-----------9g11~--------|--9~--------9h--11~------|---------------------------|
------------------------|-------------------------|---------------------------|
------------------------|-------------------------|---------------------------|
------------------------|-------------------------|---------------------------|


   H         E   Q.         H             H            H         E    Q.      
------------------------|--10~--------10g12--------|--10--------12h--14------|
--10--------10--12------|--------------------------|-------------------------|
------------------------|--------------------------|-------------------------|
------------------------|--------------------------|-------------------------|
------------------------|--------------------------|-------------------------|
------------------------|--------------------------|-------------------------|


   W                    H        H          
--17~----------------|--L-----------------||
---------------------|--------------------||
---------------------|--------------------||
---------------------|--------------------||
---------------------|--------------------||
---------------------|--------------------||










Guitar 2



     W                   W                   W                 
E||-------------------|-------------------|-------------------|
B||-------------------|-------------------|-------------------|
G||-------------------|-------------------|-------------------|
D||-------------------|-------------------|-------------------|
A||-------------------|-------------------|-------------------|
E||-------------------|-------------------|-------------------|


  W                   W                   W                   W                 
-------------------|-------------------|-------------------|-------------------|
-------------------|-------------------|-------------------|-------------------|
-------------------|-------------------|-------------------|-------------------|
-------------------|-------------------|-------------------|-------------------|
-------------------|-------------------|-------------------|-------------------|
-------------------|-------------------|-------------------|-------------------|


  W                   W                   W                   W                 
-------------------|-------------------|-------------------|-------------------|
-------------------|-------------------|-------------------|-------------------|
-------------------|-------------------|-------------------|-------------------|
-------------------|-------------------|-------------------|-------------------|
-------------------|-------------------|-------------------|-------------------|
-------------------|-------------------|-------------------|-------------------|


  W                   W                   Q    E  E  Q    E  E   
-------------------|-------------------|------------------------|
-------------------|-------------------|------------------------|
-------------------|-------------------|------------------------|
-------------------|-------------------|------------------------|
-------------------|-------------------|------------------------|
-------------------|-------------------|------------------------|


  Q    E  E  Q    E  E     E  E  E  E  Q    E  E     Q    E  E  Q    E  E   
------------------------|-------------------------|------------------------|
--2----x--2--2----x--2--|--x--2--x--2--2----x--2--|--2----x--2--2----x--2--|
--2----x--2--2----x--2--|--x--2--x--2--2----x--2--|--2----x--2--2----x--2--|
--2----x--2--2----x--2--|--x--2--x--2--2----x--2--|--2----x--2--2----x--2--|
--0----x--0--0----x--0--|--x--0--x--0--0----x--0--|--0----x--0--0----x--0--|
------------------------|-------------------------|------------------------|


  E  E  E  E  Q    E  E     Q    E  E  Q    E  E     E  E  E  E  Q    E  E   
-------------------------|------------------------|-------------------------|
--x--2--x--2--2----x--2--|--3----x--3--3----x--3--|--x--3--x--3--3----x--3--|
--x--2--x--2--2----x--2--|--4----x--4--4----x--4--|--x--4--x--4--4----x--4--|
--x--2--x--2--2----x--2--|--4----x--4--4----x--4--|--x--4--x--4--4----x--4--|
--x--0--x--0--0----x--0--|--2----x--2--2----x--2--|--x--2--x--2--2----x--2--|
-------------------------|------------------------|-------------------------|


  Q    E  E  Q    E  E     E  E  E  E  Q    E  E     Q    E  E  Q    E  E   
------------------------|-------------------------|------------------------|
--3----x--3--3----x--3--|--x--3--x--3--3----x--3--|--2----x--2--2----x--2--|
--4----x--4--4----x--4--|--x--4--x--4--4----x--4--|--2----x--2--2----x--2--|
--4----x--4--4----x--4--|--x--4--x--4--4----x--4--|--2----x--2--2----x--2--|
--2----x--2--2----x--2--|--x--2--x--2--2----x--2--|--0----x--0--0----x--0--|
------------------------|-------------------------|------------------------|


  E  E  E  E  Q    E  E     Q    E  E  Q    E  E     E  E  E  E  Q    E  E   
-------------------------|------------------------|-------------------------|
--x--2--x--2--2----x--2--|--2----x--2--2----x--2--|--x--2--x--2--2----x--2--|
--x--2--x--2--2----x--2--|--2----x--2--2----x--2--|--x--2--x--2--2----x--2--|
--x--2--x--2--2----x--2--|--2----x--2--2----x--2--|--x--2--x--2--2----x--2--|
--x--0--x--0--0----x--0--|--0----x--0--0----x--0--|--x--0--x--0--0----x--0--|
-------------------------|------------------------|-------------------------|


  Q    E  E  Q    E  E     E  E  E  E  Q    E  E     Q    E  E  Q    E  E   
------------------------|-------------------------|------------------------|
--3----x--3--3----x--3--|--x--3--x--3--3----x--3--|--3----x--3--3----x--3--|
--4----x--4--4----x--4--|--x--4--x--4--4----x--4--|--4----x--4--4----x--4--|
--4----x--4--4----x--4--|--x--4--x--4--4----x--4--|--4----x--4--4----x--4--|
--2----x--2--2----x--2--|--x--2--x--2--2----x--2--|--2----x--2--2----x--2--|
------------------------|-------------------------|------------------------|


  E  E  E  E  Q    E  E     Q    E  E  Q    E  E     E  E  E  E  Q    E  E   
-------------------------|------------------------|-------------------------|
--x--3--x--3--3----x--3--|--2----x--2--2----x--2--|--x--2--x--2--2----x--2--|
--x--4--x--4--4----x--4--|--2----x--2--2----x--2--|--x--2--x--2--2----x--2--|
--x--4--x--4--4----x--4--|--2----x--2--2----x--2--|--x--2--x--2--2----x--2--|
--x--2--x--2--2----x--2--|--0----x--0--0----x--0--|--x--0--x--0--0----x--0--|
-------------------------|------------------------|-------------------------|


  Q    E  E  Q    E  E     E  E  E  E  Q    E  E     Q    E  E  Q    E  E   
------------------------|-------------------------|------------------------|
--2----x--2--2----x--2--|--x--2--x--2--2----x--2--|--3----x--3--3----x--3--|
--2----x--2--2----x--2--|--x--2--x--2--2----x--2--|--4----x--4--4----x--4--|
--2----x--2--2----x--2--|--x--2--x--2--2----x--2--|--4----x--4--4----x--4--|
--0----x--0--0----x--0--|--x--0--x--0--0----x--0--|--2----x--2--2----x--2--|
------------------------|-------------------------|------------------------|


  E  E  E  E  Q    E  E     Q    E  E  Q    E  E     E  E  E  E  Q    E  E   
-------------------------|------------------------|-------------------------|
--x--3--x--3--3----x--3--|--3----x--3--3----x--3--|--x--3--x--3--3----x--3--|
--x--4--x--4--4----x--4--|--4----x--4--4----x--4--|--x--4--x--4--4----x--4--|
--x--4--x--4--4----x--4--|--4----x--4--4----x--4--|--x--4--x--4--4----x--4--|
--x--2--x--2--2----x--2--|--2----x--2--2----x--2--|--x--2--x--2--2----x--2--|
-------------------------|------------------------|-------------------------|


  Q    E  E  Q    E  E     E  E  E  E  Q    E  E     W                 
------------------------|-------------------------|--3----------------|
--2----x--2--2----x--2--|--x--2--x--2--2----x--2--|--3----------------|
--2----x--2--2----x--2--|--x--2--x--2--2----x--2--|--0----------------|
--2----x--2--2----x--2--|--x--2--x--2--2----x--2--|--0----------------|
--0----x--0--0----x--0--|--x--0--x--0--0----x--0--|--2----------------|
------------------------|-------------------------|--3----------------|


  W                   Q    E  E  Q    E  E     E  E  E  E  Q    E  E   
--2----------------|------------------------|-------------------------|
--3----------------|--2----x--2--2----x--2--|--x--2--x--2--2----x--2--|
--2----------------|--2----x--2--2----x--2--|--x--2--x--2--2----x--2--|
--0----------------|--2----x--2--2----x--2--|--x--2--x--2--2----x--2--|
-------------------|--0----x--0--0----x--0--|--x--0--x--0--0----x--0--|
-------------------|------------------------|-------------------------|


  Q    E  E  Q    E  E     E  E  E  E  Q    E  E     Q    E  E  Q    E  E   
------------------------|-------------------------|--2----x--2--2----x--2--|
--3----x--3--3----x--3--|--x--3--x--3--3----x--3--|--3----x--3--3----x--3--|
--0----x--0--0----x--0--|--x--0--x--0--0----x--0--|--2----x--2--2----x--2--|
--0----x--0--0----x--0--|--x--0--x--0--0----x--0--|--0----x--0--0----x--0--|
--2----x--2--2----x--2--|--x--2--x--2--2----x--2--|------------------------|
--3-------3--3-------3--|-----3-----3--3-------3--|------------------------|


  E  E  E  E  Q    E  E     Q    E  E  Q    E  E     E  E  E  E  Q    E  E   
--x--2--x--2--2----x--2--|------------------------|-------------------------|
--x--3--x--3--3----x--3--|--2----x--2--2----x--2--|--x--2--x--2--2----x--2--|
--x--2--x--2--2----x--2--|--2----x--2--2----x--2--|--x--2--x--2--2----x--2--|
--x--0--x--0--0----x--0--|--2----x--2--2----x--2--|--x--2--x--2--2----x--2--|
-------------------------|--0----x--0--0----x--0--|--x--0--x--0--0----x--0--|
-------------------------|------------------------|-------------------------|


  Q    E  E  Q    E  E     E  E  E  E  Q    E  E     Q    E  E  Q    E  E   
------------------------|-------------------------|------------------------|
--2----x--2--2----x--2--|--x--2--x--2--2----x--2--|--2----x--2--2----x--2--|
--2----x--2--2----x--2--|--x--2--x--2--2----x--2--|--2----x--2--2----x--2--|
--2----x--2--2----x--2--|--x--2--x--2--2----x--2--|--2----x--2--2----x--2--|
--0----x--0--0----x--0--|--x--0--x--0--0----x--0--|--0----x--0--0----x--0--|
------------------------|-------------------------|------------------------|


  E  E  E  E  Q    E  E     Q    E  E  Q    E  E     E  E  E  E  Q    E  E   
-------------------------|------------------------|-------------------------|
--x--2--x--2--2----x--2--|--2----x--2--2----x--2--|--x--2--x--2--2----x--2--|
--x--2--x--2--2----x--2--|--2----x--2--2----x--2--|--x--2--x--2--2----x--2--|
--x--2--x--2--2----x--2--|--2----x--2--2----x--2--|--x--2--x--2--2----x--2--|
--x--0--x--0--0----x--0--|--0----x--0--0----x--0--|--x--0--x--0--0----x--0--|
-------------------------|------------------------|-------------------------|


  Q    E  E  Q    E  E     E  E  E  E  Q    E  E     Q    E  E  Q    E  E   
------------------------|-------------------------|------------------------|
--3----x--3--3----x--3--|--x--3--x--3--3----x--3--|--3----x--3--3----x--3--|
--4----x--4--4----x--4--|--x--4--x--4--4----x--4--|--4----x--4--4----x--4--|
--4----x--4--4----x--4--|--x--4--x--4--4----x--4--|--4----x--4--4----x--4--|
--2----x--2--2----x--2--|--x--2--x--2--2----x--2--|--2----x--2--2----x--2--|
------------------------|-------------------------|------------------------|


  E  E  E  E  Q    E  E     Q    E  E  Q    E  E     E  E  E  E  Q    E  E   
-------------------------|------------------------|-------------------------|
--x--3--x--3--3----x--3--|--2----x--2--2----x--2--|--x--2--x--2--2----x--2--|
--x--4--x--4--4----x--4--|--2----x--2--2----x--2--|--x--2--x--2--2----x--2--|
--x--4--x--4--4----x--4--|--2----x--2--2----x--2--|--x--2--x--2--2----x--2--|
--x--2--x--2--2----x--2--|--0----x--0--0----x--0--|--x--0--x--0--0----x--0--|
-------------------------|------------------------|-------------------------|


  Q    E  E  Q    E  E     E  E  E  E  Q    E  E     Q    E  E  Q    E  E   
------------------------|-------------------------|------------------------|
--2----x--2--2----x--2--|--x--2--x--2--2----x--2--|--3----x--3--3----x--3--|
--2----x--2--2----x--2--|--x--2--x--2--2----x--2--|--4----x--4--4----x--4--|
--2----x--2--2----x--2--|--x--2--x--2--2----x--2--|--4----x--4--4----x--4--|
--0----x--0--0----x--0--|--x--0--x--0--0----x--0--|--2----x--2--2----x--2--|
------------------------|-------------------------|------------------------|


  E  E  E  E  Q    E  E     Q    E  E  Q    E  E     E  E  E  E  Q    E  E   
-------------------------|------------------------|-------------------------|
--x--3--x--3--3----x--3--|--3----x--3--3----x--3--|--x--3--x--3--3----x--3--|
--x--4--x--4--4----x--4--|--4----x--4--4----x--4--|--x--4--x--4--4----x--4--|
--x--4--x--4--4----x--4--|--4----x--4--4----x--4--|--x--4--x--4--4----x--4--|
--x--2--x--2--2----x--2--|--2----x--2--2----x--2--|--x--2--x--2--2----x--2--|
-------------------------|------------------------|-------------------------|


  Q    E  E  Q    E  E     E  E  E  E  Q    E  E     Q    E  E  Q    E  E   
------------------------|-------------------------|------------------------|
--2----x--2--2----x--2--|--x--2--x--2--2----x--2--|--2----x--2--2----x--2--|
--2----x--2--2----x--2--|--x--2--x--2--2----x--2--|--2----x--2--2----x--2--|
--2----x--2--2----x--2--|--x--2--x--2--2----x--2--|--2----x--2--2----x--2--|
--0----x--0--0----x--0--|--x--0--x--0--0----x--0--|--0----x--0--0----x--0--|
------------------------|-------------------------|------------------------|


  E  E  E  E  Q    E  E     Q    E  E  Q    E  E     E  E  E  E  Q    E  E   
-------------------------|------------------------|-------------------------|
--x--2--x--2--2----x--2--|--3----x--3--3----x--3--|--x--3--x--3--3----x--3--|
--x--2--x--2--2----x--2--|--4----x--4--4----x--4--|--x--4--x--4--4----x--4--|
--x--2--x--2--2----x--2--|--4----x--4--4----x--4--|--x--4--x--4--4----x--4--|
--x--0--x--0--0----x--0--|--2----x--2--2----x--2--|--x--2--x--2--2----x--2--|
-------------------------|------------------------|-------------------------|


  Q    E  E  Q    E  E     E  E  E  E  Q    E  E     Q    E  E  Q    E  E   
------------------------|-------------------------|------------------------|
--3----x--3--3----x--3--|--x--3--x--3--3----x--3--|--2----x--2--2----x--2--|
--4----x--4--4----x--4--|--x--4--x--4--4----x--4--|--2----x--2--2----x--2--|
--4----x--4--4----x--4--|--x--4--x--4--4----x--4--|--2----x--2--2----x--2--|
--2----x--2--2----x--2--|--x--2--x--2--2----x--2--|--0----x--0--0----x--0--|
------------------------|-------------------------|------------------------|


  E  E  E  E  Q    E  E     W                   W                 
-------------------------|--3----------------|--2----------------|
--x--2--x--2--2----x--2--|--3----------------|--3----------------|
--x--2--x--2--2----x--2--|--0----------------|--2----------------|
--x--2--x--2--2----x--2--|--0----------------|--0----------------|
--x--0--x--0--0----x--0--|--2----------------|-------------------|
-------------------------|--3----------------|-------------------|


  Q    E  E  Q    E  E     E  E  E  E  Q    E  E     Q    E  E  Q    E  E   
------------------------|-------------------------|------------------------|
--2----x--2--2----x--2--|--x--2--x--2--2----x--2--|--3----x--3--3----x--3--|
--2----x--2--2----x--2--|--x--2--x--2--2----x--2--|--0----x--0--0----x--0--|
--2----x--2--2----x--2--|--x--2--x--2--2----x--2--|--0----x--0--0----x--0--|
--0----x--0--0----x--0--|--x--0--x--0--0----x--0--|--2----x--2--2----x--2--|
------------------------|-------------------------|--3-------3--3-------3--|


  E  E  E  E  Q    E  E     Q    E  E  Q    E  E     E  E  E  E  Q    E  E   
-------------------------|--2----x--2--2----x--2--|--x--2--x--2--2----x--2--|
--x--3--x--3--3----x--3--|--3----x--3--3----x--3--|--x--3--x--3--3----x--3--|
--x--0--x--0--0----x--0--|--2----x--2--2----x--2--|--x--2--x--2--2----x--2--|
--x--0--x--0--0----x--0--|--0----x--0--0----x--0--|--x--0--x--0--0----x--0--|
--x--2--x--2--2----x--2--|------------------------|-------------------------|
-----3-----3--3-------3--|------------------------|-------------------------|


  Q    E  E  Q    E  E     E  Q    H        E     Q    E  E  Q    E  E   
------------------------|----------------------|--0----x--x--0----x--x--|
--2----x--2--2----x--2--|--2-------------------|--0----x--x--0----x--x--|
--2----x--2--2----x--2--|--2-------------------|--1----x--x--1----x--x--|
--2----x--2--2----x--2--|--2-------------------|--2----x--x--2----x--x--|
--0----x--0--0----x--0--|--0-------------------|------------------------|
------------------------|----------------------|------------------------|


  E  E  E  E  Q    E  E     Q    E  E  Q    E  E     E  E  E  E  Q    E  E   
--0--x--x--x--0----x--x--|--0----x--x--0----x--x--|--0--x--x--x--0----x--x--|
--0--x--x--x--0----x--x--|--0----x--x--0----x--x--|--0--x--x--x--0----x--x--|
--1--x--x--x--1----x--x--|--1----x--x--1----x--x--|--1--x--x--x--1----x--x--|
--2--x--x--x--2----x--x--|--2----x--x--2----x--x--|--2--x--x--x--2----x--x--|
-------------------------|------------------------|-------------------------|
-------------------------|------------------------|-------------------------|


  Q    E  E  Q    E  E     E  E  E  E  Q    E  E     Q    E  E  Q    E  E   
--2----x--x--2----x--x--|--2--x--x--x--2----x--x--|--2----x--x--2----x--x--|
--3----x--x--3----x--x--|--3--x--x--x--3----x--x--|--3----x--x--3----x--x--|
--2----x--x--2----x--x--|--2--x--x--x--2----x--x--|--2----x--x--2----x--x--|
--0----x--x--0----x--x--|--0--x--x--x--0----x--x--|--0----x--x--0----x--x--|
------------------------|-------------------------|------------------------|
------------------------|-------------------------|------------------------|


  E  E  E  E  Q    E  E     Q    E  E  Q    E  E     E  E  E  E  Q    E  E   
--2--x--x--x--2----x--x--|--0----x--x--0----x--x--|--0--x--x--x--0----x--x--|
--3--x--x--x--3----x--x--|--0----x--x--0----x--x--|--0--x--x--x--0----x--x--|
--2--x--x--x--2----x--x--|--1----x--x--1----x--x--|--1--x--x--x--1----x--x--|
--0--x--x--x--0----x--x--|--2----x--x--2----x--x--|--2--x--x--x--2----x--x--|
-------------------------|------------------------|-------------------------|
-------------------------|------------------------|-------------------------|


  Q    E  E  Q    E  E     E  E  E  E  Q    E  E     Q    E  E  Q    E  E   
--0----x--x--0----x--x--|--0--x--x--x--0----x--x--|--2----x--x--2----x--x--|
--0----x--x--0----x--x--|--0--x--x--x--0----x--x--|--3----x--x--3----x--x--|
--1----x--x--1----x--x--|--1--x--x--x--1----x--x--|--2----x--x--2----x--x--|
--2----x--x--2----x--x--|--2--x--x--x--2----x--x--|--0----x--x--0----x--x--|
------------------------|-------------------------|------------------------|
------------------------|-------------------------|------------------------|


  E  E  E  E  Q    E  E     Q    E  E  Q    E  E     E  E  E  E  Q    E  E   
--2--x--x--x--2----x--x--|--2----x--x--2----x--x--|--2--x--x--x--2----x--x--|
--3--x--x--x--3----x--x--|--3----x--x--3----x--x--|--3--x--x--x--3----x--x--|
--2--x--x--x--2----x--x--|--2----x--x--2----x--x--|--2--x--x--x--2----x--x--|
--0--x--x--x--0----x--x--|--0----x--x--0----x--x--|--0--x--x--x--0----x--x--|
-------------------------|------------------------|-------------------------|
-------------------------|------------------------|-------------------------|


   E   Q     E   Q     E   E     E   E   Q     Q    E  E   
---x--10-----x--10-----x--10--|--L---x---8-----8----x--x--|
---x--12-----x--12-----x--12--|--L---x--10----10----x--x--|
---x--12-----x--12-----x--12--|--L---x--10----10----x--x--|
------------------------------|---------------------------|
------------------------------|---------------------------|
------------------------------|---------------------------|


  E  Q    E  Q    E  E     E  E  Q    Q    E  E     E  Q    E  Q    E  E   
--5--7----x--7----x--7--|--L--5--5----5----x--x--|--3--5----x--5----x--5--|
--7--0----x--0----x--0--|--L--7--7----7----x--x--|--5--7----x--7----x--7--|
--7--9----x--9----x--9--|--L--7--7----7----x--x--|--5--7----x--7----x--7--|
------------------------|------------------------|------------------------|
------------------------|------------------------|------------------------|
------------------------|------------------------|------------------------|


  E  E  Q    Q    E  E     E   Q    E  Q    E  E     E  E  Q    Q    E  E   
--L--3--3----3----x--x--|-------------------------|------------------------|
--L--5--5----5----x--x--|--0h--2----2--2----2--0--|--L--2--3----2----x--x--|
--L--5--5----5----x--x--|--0h--2----2--2----2--0--|--L--2--2----2----x--x--|
------------------------|--0h--2----2--2----2--0--|--L--2--4----2----x--x--|
------------------------|-------------------------|------------------------|
------------------------|-------------------------|------------------------|


  E   Q    E  Q    E  E     E  E  Q    Q    E  E                           
-------------------------|------------------------|-----|-----|-----|-----|
--0h--2----2--2----2--0--|--L--2--3----2----x--x--|-----|-----|-----|-----|
--0h--2----2--2----2--0--|--L--2--2----2----x--x--|-----|-----|-----|-----|
--0h--2----2--2----2--0--|--L--2--4----2----x--x--|-----|-----|-----|-----|
-------------------------|------------------------|-----|-----|-----|-----|
-------------------------|------------------------|-----|-----|-----|-----|


                                                   E   Q     E   Q     E   E   
-----|-----|-----|-----|-----|-----|-----|-----|---x--10-----x--10-----x--10--|
-----|-----|-----|-----|-----|-----|-----|-----|---x--12-----x--12-----x--12--|
-----|-----|-----|-----|-----|-----|-----|-----|---x--12-----x--12-----x--12--|
-----|-----|-----|-----|-----|-----|-----|-----|------------------------------|
-----|-----|-----|-----|-----|-----|-----|-----|------------------------------|
-----|-----|-----|-----|-----|-----|-----|-----|------------------------------|


  E   E   Q     Q    E  E     E  Q    E  Q    E  E     E  E  Q    Q    E  E   
--L---x---8-----8----x--x--|--5--7----x--7----x--7--|--L--5--5----5----x--x--|
--L---x--10----10----x--x--|--7--0----x--0----x--0--|--L--7--7----7----x--x--|
--L---x--10----10----x--x--|--7--9----x--9----x--9--|--L--7--7----7----x--x--|
---------------------------|------------------------|------------------------|
---------------------------|------------------------|------------------------|
---------------------------|------------------------|------------------------|


  E  Q    E  Q    E  E     E  E  Q    Q    E  E     E   Q    E  Q    E  E   
--3--5----x--5----x--5--|--L--3--3----3----x--x--|-------------------------|
--5--7----x--7----x--7--|--L--5--5----5----x--x--|--0h--2----2--2----2--0--|
--5--7----x--7----x--7--|--L--5--5----5----x--x--|--0h--2----2--2----2--0--|
------------------------|------------------------|--0h--2----2--2----2--0--|
------------------------|------------------------|-------------------------|
------------------------|------------------------|-------------------------|


  E  E  Q    Q    E  E     E   Q    E  Q    E  E     E  E  Q    Q    E  E   
------------------------|-------------------------|------------------------|
--L--2--3----2----x--x--|--0h--2----2--2----2--0--|--L--2--3----2----x--x--|
--L--2--2----2----x--x--|--0h--2----2--2----2--0--|--L--2--2----2----x--x--|
--L--2--4----2----x--x--|--0h--2----2--2----2--0--|--L--2--4----2----x--x--|
------------------------|-------------------------|------------------------|
------------------------|-------------------------|------------------------|


  Q    E  E  Q    E  E     E  E  E  E  Q    E  E     Q    E  E  Q    E  E   
------------------------|-------------------------|------------------------|
--2----x--2--2----x--2--|--x--2--x--2--2----x--2--|--2----x--2--2----x--2--|
--2----x--2--2----x--2--|--x--2--x--2--2----x--2--|--2----x--2--2----x--2--|
--2----x--2--2----x--2--|--x--2--x--2--2----x--2--|--2----x--2--2----x--2--|
--0----x--0--0----x--0--|--x--0--x--0--0----x--0--|--0----x--0--0----x--0--|
------------------------|-------------------------|------------------------|


  E  E  E  E  Q    E  E     Q    E  E  Q    Q       W                 
-------------------------|-----------------------|-------------------|
--x--2--x--2--2----x--2--|--3----x--3--3---------|-------------------|
--x--2--x--2--2----x--2--|--4----x--4--4---------|-------------------|
--x--2--x--2--2----x--2--|--4----x--4--4---------|-------------------|
--x--0--x--0--0----x--0--|--2----x--2--2---------|-------------------|
-------------------------|-----------------------|-------------------|


  E  E  E  E  Q    Q       W                   Q    E  E  Q    E  E   
------------------------|-------------------|------------------------|
--3--x--x--3--3---------|-------------------|--2----x--2--2----x--2--|
--4--x--x--4--4---------|-------------------|--2----x--2--2----x--2--|
--4--x--x--4--4---------|-------------------|--2----x--2--2----x--2--|
--2--x--x--2--2---------|-------------------|--0----x--0--0----x--0--|
------------------------|-------------------|------------------------|


  E  E  E  E  Q    E  E     Q    E  E  Q    E  E     E  E  E  E  Q    E  E   
-------------------------|------------------------|-------------------------|
--x--2--x--2--2----x--2--|--2----x--2--2----x--2--|--x--2--x--2--2----x--2--|
--x--2--x--2--2----x--2--|--2----x--2--2----x--2--|--x--2--x--2--2----x--2--|
--x--2--x--2--2----x--2--|--2----x--2--2----x--2--|--x--2--x--2--2----x--2--|
--x--0--x--0--0----x--0--|--0----x--0--0----x--0--|--x--0--x--0--0----x--0--|
-------------------------|------------------------|-------------------------|


  Q    E  E  Q    Q       W                   E  E  E  E  Q    Q     
-----------------------|-------------------|------------------------|
--3----x--3--3---------|-------------------|--3--x--x--3--3---------|
--4----x--4--4---------|-------------------|--4--x--x--4--4---------|
--4----x--4--4---------|-------------------|--4--x--x--4--4---------|
--2----x--2--2---------|-------------------|--2--x--x--2--2---------|
-----------------------|-------------------|------------------------|


  W                   Q    E  E  Q    E  E     E  E  E  E  Q    E  E   
-------------------|------------------------|-------------------------|
-------------------|--2----x--2--2----x--2--|--x--2--x--2--2----x--2--|
-------------------|--2----x--2--2----x--2--|--x--2--x--2--2----x--2--|
-------------------|--2----x--2--2----x--2--|--x--2--x--2--2----x--2--|
-------------------|--0----x--0--0----x--0--|--x--0--x--0--0----x--0--|
-------------------|------------------------|-------------------------|


  Q    E  E  Q    E  E     E  E  E  E  Q    E  E     Q    E  E  Q    Q     
------------------------|-------------------------|-----------------------|
--2----x--2--2----x--2--|--x--2--x--2--2----x--2--|--3----x--3--3---------|
--2----x--2--2----x--2--|--x--2--x--2--2----x--2--|--4----x--4--4---------|
--2----x--2--2----x--2--|--x--2--x--2--2----x--2--|--4----x--4--4---------|
--0----x--0--0----x--0--|--x--0--x--0--0----x--0--|--2----x--2--2---------|
------------------------|-------------------------|-----------------------|


  W                   E  E  E  E  Q    Q       W                 
-------------------|------------------------|-------------------|
-------------------|--3--x--x--3--3---------|-------------------|
-------------------|--4--x--x--4--4---------|-------------------|
-------------------|--4--x--x--4--4---------|-------------------|
-------------------|--2--x--x--2--2---------|-------------------|
-------------------|------------------------|-------------------|


  Q    E  E  Q    E  E     E  E  E  E  Q    E  E     W                 
------------------------|-------------------------|--3----------------|
--2----x--2--2----x--2--|--x--2--x--2--2----x--2--|--3----------------|
--2----x--2--2----x--2--|--x--2--x--2--2----x--2--|--0----------------|
--2----x--2--2----x--2--|--x--2--x--2--2----x--2--|--0----------------|
--0----x--0--0----x--0--|--x--0--x--0--0----x--0--|--2----------------|
------------------------|-------------------------|--3----------------|


  W                   Q    E  E  Q    E  E     E  E  E  E  Q    E  E   
--2----------------|------------------------|-------------------------|
--3----------------|--2----x--2--2----x--2--|--x--2--x--2--2----x--2--|
--2----------------|--2----x--2--2----x--2--|--x--2--x--2--2----x--2--|
--0----------------|--2----x--2--2----x--2--|--x--2--x--2--2----x--2--|
-------------------|--0----x--0--0----x--0--|--x--0--x--0--0----x--0--|
-------------------|------------------------|-------------------------|


  Q    E  E  Q    E  E     E  E  E  E  Q    E  E     Q    E  E  Q    E  E   
------------------------|-------------------------|--2----x--2--2----x--2--|
--3----x--3--3----x--3--|--x--3--x--3--3----x--3--|--3----x--3--3----x--3--|
--0----x--0--0----x--0--|--x--0--x--0--0----x--0--|--2----x--2--2----x--2--|
--0----x--0--0----x--0--|--x--0--x--0--0----x--0--|--0----x--0--0----x--0--|
--2----x--2--2----x--2--|--x--2--x--2--2----x--2--|------------------------|
--3-------3--3-------3--|-----3-----3--3-------3--|------------------------|


  E  E  E  E  Q    E  E     W                                      
--x--2--x--2--2----x--2--|-------------------|-------------------||
--x--3--x--3--3----x--3--|--2----------------|-------------------||
--x--2--x--2--2----x--2--|--2----------------|-------------------||
--x--0--x--0--0----x--0--|--2----------------|-------------------||
-------------------------|--0----------------|-------------------||
-------------------------|-------------------|-------------------||










Guitar 3


     W                   E  E  E  E  E  E  E  E     E  Q    Q    E  E  E   
E||-------------------|--------------------------|------------------------|
B||-------------------|--------3--------3--------|--3--5----3----5--------|
G||-------------------|-----3--------3--------3--|---------------------2--|
D||-------------------|--7--------7--------7-----|------------------6-----|
A||-------------------|--------------------------|------------------------|
E||-------------------|--------------------------|------------------------|


  E  E  E  E  E  E  E  E     E  E  E  E  E  E  E  E   
--------------------------|--------------------------|
--2--------2--------2-----|-----2--------2--------2--|
--------2--------2--------|--2--------2--------2-----|
-----6--------6--------6--|--------6--------6--------|
--------------------------|--------------------------|
--------------------------|--------------------------|


  E  E  E  E  E  E  E  E     E  E  E  E  E  E  E  E   
--------------------------|--------------------------|
--------2--------2--------|--2--------2--------3-----|
-----2--------2--------2--|--------2--------3--------|
--6--------6--------6-----|-----6--------7--------7--|
--------------------------|--------------------------|
--------------------------|--------------------------|


  E  E  E  E  E  E  E  E     E  E  E  E  E  E  E  E   
--------------------------|--------------------------|
-----3--------3--------3--|--------3--------2--------|
--3--------3--------3-----|-----3--------2--------2--|
--------7--------7--------|--7--------6--------6-----|
--------------------------|--------------------------|
--------------------------|--------------------------|


  E  E  E  E  E  E  E  E     E  E  E  E  E  E  E  E   
--------------------------|--------------------------|
--2--------2--------2-----|-----2--------2--------2--|
--------2--------2--------|--2--------2--------2-----|
-----6--------6--------2--|--------2--------2--------|
--------------------------|--------------------------|
--------------------------|--------------------------|


  E  E  E  E  E  E  E  E     E  E  E  E  E  E  E  E   
--------------------------|--------------------------|
--------2--------2--------|--2--------2--------2-----|
-----2--------2--------2--|--------2--------2--------|
--2--------2--------2-----|-----2--------2--------2--|
--------------------------|--------------------------|
--------------------------|--------------------------|


  E  E  E  E  E  E  E  E     E  E  E  E  E  E  E  E     Q    E  E  E  E  E  E   
--------------------------|-----0--------0--------0--|-------------0--------0--|
-----2--------2--------2--|--------2--------2--------|-------2--------2--------|
--2--------2--------2-----|--2--------2--------2-----|--2-------2--------2-----|
--------2--------2--------|--------------------------|-------------------------|
--------------------------|--------------------------|-------------------------|
--------------------------|--------------------------|-------------------------|


  Q    E  E  E  E  E  E     E  E  E  E  E  E  E  E     E  E  E  E  E  E  E  E   
-------------0--------0--|-----0--------0--------0--|-----2--------2--------2--|
-------2--------2--------|--------2--------2--------|--------3--------3--------|
--2-------2--------2-----|--2--------2--------2-----|--4--------4--------4-----|
-------------------------|--------------------------|--------------------------|
-------------------------|--------------------------|--------------------------|
-------------------------|--------------------------|--------------------------|


  Q    E  E  E  E  E  E     Q    E  E  E  E  E  E     E  E  E  E  E  E  E  E   
-------------2--------2--|-------------2--------2--|-----2--------2--------2--|
-------3--------3--------|-------3--------3--------|--------3--------3--------|
--4-------4--------4-----|--4-------4--------4-----|--4--------4--------4-----|
-------------------------|-------------------------|--------------------------|
-------------------------|-------------------------|--------------------------|
-------------------------|-------------------------|--------------------------|


  E  E  E  E  E  E  E  E     Q    E  E  E  E  E  E     Q    E  E  E  E  E  E   
-----0--------0--------0--|-------------0--------0--|-------------0--------0--|
--------2--------2--------|-------2--------2--------|-------2--------2--------|
--2--------2--------2-----|--2-------2--------2-----|--2-------2--------2-----|
--------------------------|-------------------------|-------------------------|
--------------------------|-------------------------|-------------------------|
--------------------------|-------------------------|-------------------------|


  E  E  E  E  E  E  E  E     E  E  E  E  E  E  E  E     Q    E  E  E  E  E  E   
-----0--------0--------0--|-----2--------2--------2--|-------------2--------2--|
--------2--------2--------|--------3--------3--------|-------3--------3--------|
--2--------2--------2-----|--4--------4--------4-----|--4-------4--------4-----|
--------------------------|--------------------------|-------------------------|
--------------------------|--------------------------|-------------------------|
--------------------------|--------------------------|-------------------------|


  Q    E  E  E  E  E  E     E  E  E  E  E  E  E  E     E  E  E  E  E  E  E  E   
-------------2--------2--|-----2--------2--------2--|-----0--------0--------0--|
-------3--------3--------|--------3--------3--------|--------2--------2--------|
--4-------4--------4-----|--4--------4--------4-----|--2--------2--------2-----|
-------------------------|--------------------------|--------------------------|
-------------------------|--------------------------|--------------------------|
-------------------------|--------------------------|--------------------------|


  Q    E  E  E  E  E  E     Q    E  E  E
Добавлено: 06.07.2012
Другие материалы по этой песне:

Страница создана 27.03.2012
http://primanota.ru/black-oak-arkansas/memories-at-the-window-chords.htm
Привет, Гость.
Предлагаем пройти революционный курс по гитаре.
Подарок от PrimaNota.Ru, забирай!