PrimaNota.ru - самый крупный в мире бесплатный архив песенных текстов, аккордов, табулатур и нот


Black N Blue - Hold On To 18 - таба, бас-таба, видео

Регистрация Запомнить меня
Войти через:  Facebook Google Twitter Vk Yandex Mail.ru

Black N Blue - Hold On To 18 - таба, бас-таба, видео

Печатать
Просмотров: 140
Авторы: Jaime St. James, Tommy Thayer

-------------------------------------------------------------------------------
                             HOLD ON TO 18 - Black 'N Blue
-------------------------------------------------------------------------------
Tabbed by: Isaias Garcia (TexasFury)

Tuning: tune down 1/2 step



Guitar - left

      W                   W                   W                   W                 
D#||-------------------|-------------------|-------------------|-------------------|
A#||-------------------|-------------------|-------------------|-------------------|
F#||-------------------|-------------------|-------------------|-------------------|
C#||-------------------|-------------------|-------------------|-------------------|
G#||-------------------|-------------------|-------------------|-------------------|
D#||-------------------|-------------------|-------------------|-------------------|


  W                   W                   W                   H        Q    E  E   
-------------------|-------------------|-------------------|----------------------|
-------------------|-------------------|-------------------|----------------------|
-------------------|-------------------|-------------------|-------------------2--|
-------------------|-------------------|-------------------|-------------------2--|
-------------------|-------------------|-------------------|-------------------0--|
-------------------|-------------------|-------------------|----------------------|


  E  E  H        E  E     E  E  H        E  E     E  E  H        E  E     E  E  H        E  E   
--------------------3--|-----------------------|-----------------------|-----3--L--------L-----|
-----3--L--------L--3--|-----------------------|-----------------------|-----3--L--------L-----|
-----2--L--------L--0--|-----2--L--------L-----|-----5--L--------L--5--|-----0--L--------L--2--|
-----0--L--------L-----|-----2--L--------L--3--|-----5--L--------L--5--|-----0--L--------L--2--|
-----0--L--------L-----|-----0--L--------L--3--|-----3--L--------L--3--|--------------------0--|
-----------------------|--------------------1--|-----------------------|-----3--L--------L-----|


  E  E  H        E  E     E  E  H        E  E     E  E  H        E  E     E  E  Q    E  E  E  E   
--------------------3--|-----------------------|-----------------------|-----3--L----L-----------|
-----3--L--------L--3--|-----------------------|-----------------------|-----3--L----L--------3--|
-----2--L--------L--0--|-----2--L--------L-----|-----5--L--------L--5--|-----0--L----L--2--L--2--|
-----0--L--------L-----|-----2--L--------L--3--|-----5--L--------L--5--|-----0--L----L--2--L--0--|
-----0--L--------L-----|-----0--L--------L--3--|-----3--L--------L--3--|----------------0--L--0--|
-----------------------|--------------------1--|-----------------------|-----3--L----L-----------|


  H.           E  E     E  E  H        E  E     E  E  H        E  E     E  E  E  E  Q    E  E   
------------------3--|-----------------------|-----------------------|-----3--3--5--L----L-----|
--L------------L--3--|-----------------------|-----------------------|-----3--3----------------|
--L------------L--0--|-----2--L--------L-----|-----5--L--------L--5--|-----0--0-------------2--|
--L------------L-----|-----2--L--------L--3--|-----5--L--------L--5--|-----0--0-------------2--|
--L------------L-----|-----0--L--------L--3--|-----3--L--------L--3--|----------------------0--|
---------------------|--------------------1--|-----3--L--------L-----|-----3--3----------------|


  E  E  H        E  E     E  E  H        E  E     E  E  H        E  E   
--------------------3--|-----------------------|--------------------3--|
-----3--L--------L--3--|-----------------------|--------------------3--|
-----2--L--------L--0--|-----2--L--------L-----|-----5--L--------L--0--|
-----0--L--------L--0--|-----2--L--------L--3--|-----5--L--------L--0--|
-----0--L--------L-----|-----0--L--------L--3--|-----3--L--------L-----|
--------------------3--|--------------------1--|--------------------3--|


  E  E  Q    E  E    E   E      E     E   E   E   Q.       E       E      E   E   E    H          
--L-------------------------|----------------------------------|---------------------------------|
--L---------------------15--|---Lbr---L--13--12--13~------15b--|---Lpbr---L--13--16b---L~--------|
--L-------------------------|----------------------------------|---------------------------------|
--L--2--L----L--------------|----------------------------------|---------------------------------|
-----2--L----L--------------|----------------------------------|---------------------------------|
--L--0--L----L--3s--19------|----------------------------------|---------------------------------|


  E   E   E   E   E     E    E   E      E   E   Q      E   E  E   E   
------------------------------------|--------------------------------|
------------------------------------|---------------------17-----20--|
-----19b-----19--19br--19p--17------|--17--19--19b~------------------|
--------------------------------19--|--------------------------------|
------------------------------------|--------------------------------|
------------------------------------|--------------------------------|


   Q      E   E   E   E    Q        H         Q      E   E      E   E   H         E   S  S  
--------------------------------|------------22b----22--22--|---L--20---L---------L--20-19-|
--20b----20--20b-----20b---L----|--20-----------------------|------------------------------|
--------------------------------|---------------------------|------------------------------|
--------------------------------|---------------------------|------------------------------|
--------------------------------|---------------------------|------------------------------|
--------------------------------|---------------------------|------------------------------|


                           PM PM PM      PM PM PM    PM PM PM   PM PM PM PM  
   H.             Q        E  E  Q    E  E  E  E     E  E  Q    E  E  E  E   
------------------------|-------------------------|-------------------------|
--22~-------------L\----|--------1-------1--------|--------1-------1--------|
------------------------|-----2-------------2-----|-----2-------------2-----|
------------------------|--2-------------------2--|--3-------------------3--|
------------------------|-------------------------|-------------0-----------|
------------------------|-------------------------|-------------------------|


  PM PM PM   PM PM PM PM    PM PM PM PM PM PM PM PM    PM PM PM PM    PM PM PM  
  E  E  Q    E  E  E  E     E  E  E  E  E  E  E  E     E  E  E  E  E  E  E  E   
-------------------------|--------------------------|--------------------------|
--------3----------------|--------1--------1--------|--------1--------1--------|
-----2----------2--------|-----2-----2--------2-----|-----2--------------------|
--4----------4-----4--2--|--2-----------2--------2--|--3--------3--------3--2--|
-------------------------|--------------------------|--------------------------|
-------------------------|--------------------------|--------------------------|


                              PM PM PM PM PM    PM    PM PM PM PM PM           
  S  E.  Q    Q    Q       E  E  E  E  E  E  E  E     E  E  E  E  Q    E   E   
------------------------|--------------------------|--------------------------|
---------3----3----3----|-----3--------------------|----------------------10--|
--2s-4------------------|--------2-----2--------0--|--2--------0--L--------9--|
--3s-5------------------|-----------2-----2--------|-----2-----------------7--|
------------------------|--------------------------|--------0-----------------|
------------------------|--------------------------|--------------------------|


              PM PM PM PM PM             PM PM PM PM                PM PM PM PM PM  
   E   E   E  E  E  E  E  E     E  E  E  E  E  E  E  E     E  E  E  E  E  E  E  E   
-----------------------------|--------------------------|--------------------------|
---L--10--10-----------------|--6--6--6-----------------|--------------------------|
---L---9---9-----------------|--5--5--5--------------7--|--7--7--7-----------------|
---L---7---7-----------------|--3--3--3--------------7--|--7--7--7-----------------|
--------------0--0--0--0--0--|-----------0--0--0--0--5--|--5--5--5--0--0--0--0--0--|
-----------------------------|--------------------------|--------------------------|


              PM PM PM PM                PM PM PM PM                PM PM PM PM      
   E   E   E  E  E  E  E  E     E  E  E  E  E  E  E  E     E  E  E  E  E  E  E   E   
-----------------------------|--------------------------|---------------------------|
--10--10--10--------------6--|--6--6--6--------------8--|--8--8--8--------------10--|
---9---9---9--------------5--|--5--5--5--------------7--|--7--7--7---------------9--|
---7---7---7--------------3--|--3--3--3--------------5--|--5--5--5---------------7--|
--------------0--0--0--0-----|-----------0--0--0--0-----|-----------0--0--0--0------|
-----------------------------|--------------------------|---------------------------|


              PM PM PM PM                    PM PM PM PM                              
   E   E   E  E  E  E  E   E      E   E   E  E  E  E  E  E     Q    E  E  Q    E  E   
------------------------------|-----------------------------|------------------------|
---L--10--10--------------10--|---L--10--10--------------6--|--L----L-------------8--|
---L---9---9---------------9--|---L---9---9--------------5--|--L----L--5--L----5--7--|
---L---7---7---------------7--|---L---7---7--------------3--|--L----L--5--L----5--5--|
--------------0--0--0--0------|--------------0--0--0--0-----|----------3--L----3-----|
------------------------------|-----------------------------|------------------------|


  Q    E  E  H           Q    E  E  Q    Q       Q    H.              Q    E  E  Q    E  E   
----------------------|-----------------------|--------------------|------------------------|
--L----L--------------|--6----L----------3----|--L----3------------|--6----L-------------8--|
--L----L--7--7--------|--5----L--5--L----2----|--L----2------------|--5----L--5--L----5--7--|
--L----L--7--7--------|--3----L--5--L----0----|--L----0------------|--3----L--5--L----5--5--|
----------5--5--------|----------3--L----0----|--L----0------------|----------3--L----3-----|
----------------------|-----------------------|--------------------|------------------------|


  Q    E  E  H           Q    E  E  Q    Q       W                   H.           E  E   
----------------------|------------------0----|--L----------------|--L------------L-----|
--L----L--------------|--6----L--3--L----0----|--L----------------|--L------------L-----|
--L----L--7--7--------|--5----L--2--L----1----|--L----------------|--L------------L--2--|
--L----L--7--7--------|--3----L--0--L----2----|--L----------------|--L------------L--2--|
----------5--5--------|------------------2----|--L----------------|--L------------L--0--|
----------------------|------------------0----|--L----------------|--L------------L-----|


  E  E  Q    Q    E  E     E  E  Q    Q    E  E     E  E  Q    E  E  E  E   
---------------------3--|--L----------0----L--x--|-------------------------|
-----3--L----3----L--3--|--L---------------------|-------------------------|
--L--2--L----2----L--0--|--L--2--L---------------|-----5--L----L--5--L--5--|
--L--0--L----0----L-----|-----2--L------------3--|--L--5--L----L--5--L--5--|
--L--0--L----0----L-----|-----0--L------------3--|--L--3--L----L--3--L--3--|
------------------------|---------------------1--|--L----------------------|


  E  E  Q    E  E  E  E     E  E  H        E  E     E  E  H        E  E     E  E  Q    E  E  E  E   
-----3--3----3--3--3-----|--------------------3--|--L--------------------|----------------------3--|
-----3--3----3--3--3-----|-----3--L--------L--3--|--L--------------------|----------------------3--|
--L--0--0----0--0--0--2--|--L--2--L--------L--0--|--L--2--L--------L-----|-----5--L----5--5--L--0--|
--L--0--0----0--0--0--2--|--L--0--L--------L-----|-----2--L--------L--3--|--L--5--L----5--5--L--0--|
--L-------------------0--|--L--0--L--------L-----|-----0--L--------L--3--|--L--3--L----3--3--L-----|
-----3--3----3--3--3-----|-----------------------|--------------------1--|--L-------------------3--|


                         PM PM PM PM PM PM PM PM    PM PM PM PM PM PM PM PM  
  E  E  H        Q       E  E  E  E  E  E  E  E     E  E  E  E  E  E  E  E   
--L-------------------|--------------------------|--------------------------|
--L-------------------|--------1--------1--------|--------1--------1--------|
--L--1--L-------------|-----2--------------2-----|-----2--------------2-----|
--L--2--L-------------|--2--------2--L-----------|--3--------------------3--|
-----2--L-------------|-----------------------0--|-----------0--L-----------|
--L--0--L-------------|--------------------------|--------------------------|


  PM PM PM   PM PM PM PM    PM PM PM PM PM PM PM PM    PM PM PM PM    PM PM PM  
  E  E  Q    E  E  E  E     E  E  E  E  E  E  E  E     E  E  E  E  E  E  E  E   
-------------------------|--------------------------|--------------------------|
--------3-------3--------|--------1--------1--------|--------1--------1--------|
-----2-------------2-----|-----2-----2--------2-----|-----2--------------------|
--4----------4--------4--|--2-----------2--------2--|--3--------3--------3--2--|
-------------------------|--------------------------|--------------------------|
-------------------------|--------------------------|--------------------------|


                               PM PM    PM              PM                    
  S  E.  H.              E  E  E  E  E  E  E  E      E  E  E  E  E  E  E  E   
----------------------|---------------------------|--------------------------|
---------3------------|-----3---------------------|--------------------------|
--2s-4----------------|--------2-----2--2-----0h--|--2--------0-----2-----2--|
--3s-5----------------|-----------2---------------|-----2-----------------2--|
----------------------|---------------------------|-----------------------0--|
----------------------|---------------------------|--------------------------|


           PM PM PM PM PM             PM PM PM PM                PM PM PM PM PM  
  E  E  E  E  E  E  E  E     E  E  E  E  E  E  E  E     E  E  E  E  E  E  E  E   
--------------------------|--------------------------|--------------------------|
--------------------------|--6--6--6-----------------|--------------------------|
--L--2--2-----------------|--5--5--5--------------7--|--7--7--7-----------------|
--L--2--2-----------------|--3--3--3--------------7--|--7--7--7-----------------|
--L--0--0--0--0--0--0--0--|-----------0--0--0--0--5--|--5--5--5--0--0--0--0--0--|
--------------------------|--------------------------|--------------------------|


              PM PM PM PM                PM PM PM PM                PM PM PM PM      
   E   E   E  E  E  E  E  E     E  E  E  E  E  E  E  E     E  E  E  E  E  E  E   E   
-----------------------------|--------------------------|---------------------------|
--10--10--10--------------6--|--6--6--6--------------8--|--8--8--8--------------10--|
---9---9---9--------------5--|--5--5--5--------------7--|--7--7--7---------------9--|
---7---7---7--------------3--|--3--3--3--------------5--|--5--5--5---------------7--|
--------------0--0--0--0-----|-----------0--0--0--0-----|-----------0--0--0--0------|
-----------------------------|--------------------------|---------------------------|


              PM PM PM PM                    PM         PM                               
   E   E   E  E  E  E  E   E      E   E   E  E   E   E  E  E     Q    E  E  E  E  E  E   
------------------------------|-------------------------------|-------------------------|
---L--10--10--------------10--|---L--10--10-----10--10-----6--|--L----L--------------8--|
---L---9---9---------------9--|---L---9---9------9---9-----5--|--L----L--5--L--5--L--7--|
---L---7---7---------------7--|---L---7---7------7---7-----3--|--L----L--5--L--5--L--5--|
--------------0--0--0--0------|--------------0----------0-----|----------3--L--3--L-----|
------------------------------|-------------------------------|-------------------------|


  Q    E  E  E  E  Q       Q    E  E  Q    Q       Q    H.              E  E  E  E  E  E  E  E   
------------------------|-----------------------|--------------------|--------------------------|
--L----L----------------|--6----L---------------|--------------------|-----6--L--5--L--------8--|
--L----L--7--7--7--7----|--5----L--5--L----7----|--L----7------------|--5--------------5--L--7--|
--L----L--7--7--7--7----|--3----L--5--L----7----|--L----7------------|-----------------------5--|
----------5--5--5--5----|----------3--L----5----|--L----5------------|--------------------------|
------------------------|-----------------------|--------------------|--------------------------|


  E  E  E  E  E  E  Q       Q    E  E  Q    Q       H        Q    E  E     E  E  Q    Q    E  E   
-------------------------|-----------------------|-----------0----L-----|---------------------3--|
--L--8--8--8--7--7--7----|--6----L--3--L---------|-----------0----L-----|-----3--L----3----L--3--|
--L--7--7--7--7--7--7----|--5----L--2--L----1----|--L----------------2--|--L--2--L----2----L--0--|
--L--5--5--5--7--7--7----|--3----L--0--L----2----|--L----------------2--|--L--0--L----0----L-----|
-------------------------|------------------2----|--L----------------0--|--L--0--L----0----L-----|
-------------------------|------------------0----|--L-------------------|------------------------|


  E  E  Q    Q    E  E     E  E  Q    E  E  E  E     E  E  Q    Q    E  E     E  E  H        E  E   
--L---------------------|-------------------------|-----3--L----3----L-----|--------------------3--|
--L----------5----L-----|-------------------------|-----3--L----3----L-----|-----3--L--------L--3--|
--L--2--L----2----L-----|-----5--L----5--5--L--5--|--L--0--L----0----L--2--|--L--2--L--------L--0--|
-----2--L----2----L--3--|--L--5--L----5--5--L--5--|--L--0--L----0----L--2--|--L--0--L--------L-----|
-----0--L----0----L--3--|--L--3--L----3--3--L--3--|--L------------------0--|--L--0--L--------L-----|
---------------------1--|--L----------------------|-----3--L----3----L-----|-----------------------|


  E  E  H        E  E     E  E  Q    E  E  E  E     E  E  H        E  E     E  E  H        E  E   
--L--------------------|----------------------3--|--L-----------------3--|--L--------------------|
--L--------------------|----------------------3--|--L-----------------3--|--L--------------------|
--L--2--L--------L-----|-----5--L----L--5--L--0--|--L--1--L--------L--0--|--L--2--L--------L--9--|
-----2--L--------L--3--|--L--5--L----L--5--L--0--|--L--2--L--------L--0--|--L--2--L--------L--9--|
-----0--L--------L--3--|--L--3--L----L--3--L-----|-----2--L--------L-----|-----0--L--------L--7--|
--------------------1--|--L-------------------3--|--L--0--L--------L--3--|--L--------------------|


  PM PM PM PM PM PM PM PM       PM PM PM PM PM PM PM PM       PM PM PM PM PM PM PM PM PM     
  E  E  E  E  E  S  S  E  E     E  E  E  E  E  S  S  E  E     E  E  E  S  S  E  S  S  E  E   
-----------------------------|-----------------------------|--------------------------------|
-----------------------------|-----------------------------|--------------------------------|
--------------------------5--|--------------------------7--|-----------------------------9--|
--------------------------5--|--------------------------7--|-----------------------------9--|
--------------------------3--|--------------------------5--|-----------------------------7--|
--0--0--0--0--0--0--0--0-----|--0--0--0--0--0--0--0--0-----|--0--0--0--0--0--0--0--0--0-----|


  PM PM PM PM PM                PM PM PM PM PM PM       PM PM PM PM PM           
  E  E  E  E  E  E  E  E     E  E  E  E  E  E  E  E     E  E  E  E  E  E  E  E   
--------------------------|--------------------------|--------------------------|
--------------------------|--------------------------|--------------------------|
-----------------5-----5--|-----------------------7--|-----------------9-----9--|
-----------------5-----5--|-----------------------7--|-----------------9-----9--|
-----------------3-----3--|-----------------------5--|-----------------7-----7--|
--0--0--0--0--0-----------|-----0--0--0--0--0--0-----|--0--0--0--0--0-----------|


  H        E  E  E  E      S  E   S  E   S   S  S  E.   E   E       E   E    E   E   Q     E   E    
-----------------------|----------------------------------------|---------------12--15b-------17b--|
-----------------------|--12-12-----12-----------------15--15b--|---L--15b---L---------------------|
--L--------L--9--L-----|--12-12-----12--14p-12----12------------|----------------------------------|
--L--------L--9--L-----|---------14------------14---------------|----------------------------------|
--L--------L--7--L-----|----------------------------------------|----------------------------------|
-----------------------|----------------------------------------|----------------------------------|


   E   E   E   E   Q     E   E        Q     E   E   E     E   E   E      E   E   H         E   E   
---L--17--15--14--15----12--15br--|---L----14--15--15br---L--14------|----------------------------|
----------------------------------|------------------------------15--|---------------------0--12--|
----------------------------------|----------------------------------|--14-----------------0--12--|
----------------------------------|----------------------------------|------17--16~---------------|
----------------------------------|----------------------------------|----------------------------|
----------------------------------|----------------------------------|----------------------------|


   E   E   E   E   E    E   S   S  E      S   S  S   S  S  S  S   S  H           
--------------------------------------|---------15p-12----12--------------------|
---L------12--12-------12--15p-12-----|--15p-12--------15----15p-12-15b~--------|
---L------12--12--14b-------------14--|-----------------------------------------|
------14------------------------------|-----------------------------------------|
--------------------------------------|-----------------------------------------|
--------------------------------------|-----------------------------------------|


   E   E   S  E   S  E   S  S E   E       E   E    H         E   E       E   E  E   E  E  E  Q     
------15-----14-----12----------------|------------------------------|----------------------------|
---------------------------15----15---|---L--15----L---------L--10b--|---L--10--7-----------------|
--14------14-----14-----14-------14b--|---L--14b---L---------L-------|-------------10--9--7-------|
--------------------------------------|------------------------------|-----------------------9----|
--------------------------------------|------------------------------|----------------------------|
--------------------------------------|------------------------------|----------------------------|


                                feedback                                                     
  S  S  S  S  H.                W                     W                    W                 
---------------------------|--(15)----------------|---L----------------|---L----------------|
---------------------------|----------------------|--------------------|--------------------|
---------------------------|----------------------|--------------------|--------------------|
--7h-9p-7h-9p-7------------|----L-----------------|---L----------------|---L----------------|
---------------------------|----------------------|--------------------|--------------------|
---------------------------|----------------------|--------------------|--------------------|


   W                    W                     W                     H         Q.      E   
---L----------------|---L----------------|--(17)----------------|---L--------------------|
--------------------|--------------------|----------------------|------------------------|
--------------------|--------------------|----------------------|---------------------2--|
---L----------------|---L----------------|----L-----------------|---L-----------------2--|
--------------------|--------------------|----------------------|---------------------0--|
--------------------|--------------------|----------------------|------------12\---------|


           PM PM PM PM PM             PM PM PM PM                PM PM PM PM PM  
  E  E  E  E  E  E  E  E     E  E  E  E  E  E  E  E     E  E  E  E  E  E  E  E   
--------------------------|--------------------------|--------------------------|
--------------------------|--6--6--6-----------------|--------------------------|
--L--2--2-----------------|--5--5--5--------------7--|--L--7--7-----------------|
--L--2--2-----------------|--3--3--3--------------7--|--L--7--7-----------------|
--L--0--0--0--0--0--0--0--|-----------0--0--0--0--5--|--L--5--5--0--0--0--0--0--|
--------------------------|--------------------------|--------------------------|


              PM PM PM PM       PM PM PM PM PM PM PM PM    PM PM                    
   E   E   E  E  E  E  E  E     E  E  E  E  E  E  E  E     E  E  E  E  E  E  E  E   
-----------------------------|--------------------------|--------------------------|
--10--10--10-----------------|--------------------------|--------------------------|
---9---9---9-----------------|--------------------------|--------5--5--4--------2--|
---7---7---7--------------3--|--3--3--3--3--3--3--3--3--|--5--5--5--5--5--5--5--2--|
--------------0--0--0--0--3--|--3--3--3--3--3--3--3--3--|--5--5--5--5--5--5--5--0--|
--------------------------1--|--1--1--1--1--1--1--1--1--|--3--3--3--3--3--3--3-----|


  E  E  Q    Q    E  E     E  E  H        E  E     E  E  H        E  E     E  E  H        E  E   
---------------------3--|--L--------------------|-----------------------|-----3--L--------L-----|
-----3--L----3----L--3--|--L--------------------|-----------------------|-----3--L--------L-----|
--L--2--L----2----L--0--|--L--2--L--------L-----|-----5--L--------L--5--|--L--0--L--------L--2--|
--L--0--L----0----L-----|-----2--L--------L--3--|--L--5--L--------L--5--|--L--0--L--------L--2--|
--L--0--L----0----L-----|-----0--L--------L--3--|--L--3--L--------L--3--|--L-----------------0--|
------------------------|--------------------1--|--L--3--L--------L--3--|--L--3--L--------L-----|


  E  E  H        E  E     E  E  H        E  E     E  E  H        E  E     E  E  H        E  E   
--------------------3--|--L--------------------|--------------------3--|--L--------------------|
-----3--L--------L--3--|--L--------------------|--------------------3--|--L--------------------|
--L--2--L--------L--0--|--L--2--L--------L-----|-----5--L--------L--0--|--L-----------------2--|
--L--0--L--------L-----|-----2--L--------L--3--|--L--5--L--------L--0--|--L--2--L--------L--2--|
--L--0--L--------L-----|-----0--L--------L--3--|--L--3--L--------L-----|-----2--L--------L--0--|
-----------------------|--------------------1--|--L--3--L--------L--3--|--L--0--L--------L-----|


  E  E  E  E  Q    E  E     E  E  Q    E  E  E  E     E  E  H        E  E     E  E  H        E  E   
----------------------3--|--L----------------------|-----------------------|-----3--L--------L-----|
-----3--3--3--L----L--3--|--L----------------------|-----------------------|-----3--L--------L-----|
--L--2--2--2--L----L--0--|--L--2--L----L--2--L-----|-----5--L--------L--5--|--L--0--L--------L--2--|
--L--0--0--0--L----L-----|-----2--L----L--2--L--3--|--L--5--L--------L--5--|--L--0--L--------L--2--|
--L--0--0--0--L----L-----|-----0--L----L--0--L--3--|--L--3--L--------L--3--|--L-----------------0--|
-------------------------|----------------------1--|--L--3--L--------L--3--|--L--3--L--------L-----|


  E  E  Q    Q    E  E     E  E  H        E  E     E  E  H        E  E     E  E  H.            
---------------------3--|--L--------------------|-----3--L--------L--3--|--L------------------|
-----3--L----3----L--3--|--L--------------------|-----3--L--------L--3--|--L------------------|
--L--2--L----2----L--0--|--L--2--L--------L-----|-----0--L--------L--0--|--L------------------|
--L--0--L----0----L-----|-----2--L--------L--3--|--L--0--L--------L--0--|--L--7--L------------|
--L--0--L----0----L-----|-----0--L--------L--3--|--L--------------------|-----7--L------------|
------------------------|--------------------1--|--L--3--L--------L--3--|--L--5--L------------|


  W                   W                 
-------------------|-------------------|
-------------------|-------------------|
-------------------|-------------------|
--L----------------|--L----------------|
--L----------------|--L----------------|
--L----------------|--L----------------|


                   
  Q     Q                                          H          
------------------------------------------------------------||
------------------------------------------------------------||
------------------------------------------------------------||
--7\--------------------------------------------------------||
--7\--------------------------------------------------------||
--5\--------------------------------------------------------||




Guitar - right

      W                   W                   W                   S  S  S  S Q    H         
D#||-------------------|-------------------|-------------------|---------------------------|
A#||-------------------|-------------------|-------------------|---------------------------|
F#||-------------------|-------------------|-------------------|---------------------------|
C#||-------------------|-------------------|-------------------|---------------------------|
G#||-------------------|-------------------|-------------------|--0h-3p-0h-3---------------|
D#||-------------------|-------------------|-------------------|---------------------------|


  W                   W                   W                   W                   W                 
-------------------|-------------------|-------------------|-------------------|-------------------|
-------------------|-------------------|-------------------|-------------------|-------------------|
-------------------|-------------------|-------------------|-------------------|-------------------|
-------------------|-------------------|-------------------|-------------------|-------------------|
-------------------|-------------------|-------------------|-------------------|-------------------|
-------------------|-------------------|-------------------|-------------------|-------------------|


  W                   W                   W                   W                   W                 
-------------------|-------------------|-------------------|-------------------|-------------------|
-------------------|-------------------|-------------------|-------------------|-------------------|
-------------------|-------------------|-------------------|--2----------------|--L----------------|
-------------------|-------------------|-------------------|--2----------------|--L----------------|
-------------------|-------------------|-------------------|--0----------------|--L----------------|
-------------------|-------------------|-------------------|-------------------|-------------------|


  W                   H        E  E  E  E     H.           E  E     E  E  H        E  E   
-------------------|-----------------------|------------------3--|-----------------------|
-------------------|--------------------3--|--L------------L--3--|-----------------------|
--L----------------|--L--------L--2--L--2--|--L------------L--0--|-----2--L--------L-----|
--L----------------|--L--------L--2--L--0--|--L------------L-----|-----2--L--------L--3--|
--L----------------|--L--------L--0--L--0--|--L------------L-----|-----0--L--------L--3--|
-------------------|-----------------------|------------------3--|--------------------1--|


                            PM PM      PM                                     
  E  E  H        E  E     S S  E  Q    E  E  E  E     E  E  E  E  Q    E  E   
-----------------------|---------------------------|----------------------3--|
--------3--------L-----|---------------------------|-----3--3--3--L----L--3--|
-----5--5--------L--5--|------------------------2--|-----2--2--2--L----L--0--|
-----5--5--------L--5--|----------5----5--5-----2--|-----0--0--0--L----L--0--|
-----3--3--------L--3--|----------5----5--5-----0--|-----0--0--0--L----L-----|
-----3--3--------L-----|----3--3--3----3--3--------|----------------------3--|


             PM                                                               
  E  E  Q    E  E  E  E     E  S S Q    E  E  E  E     E  E  H        E   E   
-------------------------|--------------------------|------------------------|
-------------------------|--------------------------|------------------------|
-----2--2-------2--2-----|-----5-5-5----L--5--L-----|--------------------16--|
-----2--2-------2--2--3--|-----5-5-5----L--5--L--5--|--L--2--L--------L------|
-----0--0----0--0--0--3--|-----3-3-3----L--3--L--5--|--L--2--L--------L------|
----------------------1--|-----------------------3--|--L--0--L--------L------|


   E     E   E   E   Q.       E       E      E   E   E    H          
----------------------------------|---------------------------------|
----------------------------------|---------------------------------|
---Lbr---L--14------14~------16b--|---Lpbr---L--14--17b---L~--------|
----------------17----------------|---------------------------------|
----------------------------------|---------------------------------|
----------------------------------|---------------------------------|


  E   E   E   E   E     E    E   E      E   E   Q      E   E  E   E   
------------------------------------|--------------------------------|
------------------------------------|---------------------17-----20--|
-----19b-----19--19br--19p--17------|--17--19--19b~------------------|
--------------------------------19--|--------------------------------|
------------------------------------|--------------------------------|
------------------------------------|--------------------------------|


   Q      E   E   E   E    Q        H          Q      E   E      E   E   H         E   S  S  
--------------------------------|-------------19b----19--19--|---L--17---L---------L--17----|
--20b----20--20b-----20b---L----|--20~-----------------------|---------------------------20-|
--------------------------------|----------------------------|------------------------------|
--------------------------------|----------------------------|------------------------------|
--------------------------------|----------------------------|------------------------------|
--------------------------------|----------------------------|------------------------------|


   H.             Q        E  E  Q    H           E  E  Q    H           E  E  Q    H         
------------------------|----------------------|----------------------|----------------------|
--17~-------------L\----|----------------------|----------------------|----------------------|
------------------------|--2--2--2-------------|--2--2--2-------------|--7--7--7-------------|
------------------------|--2--2--2-------------|--3--3--3-------------|--7--7--7-------------|
------------------------|--0--0--0-------------|--0--0--0-------------|--5--5--5-------------|
------------------------|----------------------|----------------------|----------------------|


                     PM PM                                                                       
  E  E  Q    Q    E  S  S     E  E  Q    H           E  E  Q    H           E  E  Q    H         
---------------------------|----------------------|----------------------|----------------------|
---------------------------|----------------------|----------------------|----------------------|
--2--2--2------------------|----------------------|----------------------|--2--2--2-------------|
--2--2--2------------------|--3--3--3-------------|--5--5----------------|--2--2--2-------------|
--0--0--0------------0--0--|--3--3--3-------------|--5--5----------------|--0--0--0-------------|
---------------------------|--1--1--1-------------|--3--3----------------|----------------------|


                                    PM PM PM PM PM PM            PM PM PM PM     
  E  E  Q    E   E   E  E     E  E  E  E  E  E  E  E     Q    E  E  E  E  E  E   
---------------------------|--------------------------|-------------------------|
---------------------------|--------------------------|--6----6-----------------|
--2--2--2---------------2--|--L--2--------------------|--5----5--------------7--|
--2--2--2---------------2--|--L--2--------------------|--3----3--------------7--|
--0--0--0---------------0--|--L--0--0--0--0--0--0--0--|----------0--0--0--0--5--|
----------------12\--------|--------------------------|-------------------------|


           PM PM PM PM PM            PM PM PM PM               PM PM PM PM     
  E  E  E  E  E  E  E  E     Q    E  E  E  E  E  E     Q    E  E  E  E  E  E   
--------------------------|--5----5-----------------|-------------------------|
--------------------------|--5----5-----------------|-------------------------|
--7--7--7-----------------|--2----2-----------------|-------------------------|
--7--7--7-----------------|--2----2--------------3--|--3----3--------------5--|
--5--5--5--0--0--0--0--0--|--0----0--0--0--0--0--3--|--3----3--0--0--0--0--5--|
--------------------------|----------------------1--|--1----1--------------3--|


           PM PM PM PM             PM PM PM PM PM             PM PM PM PM PM     
  E  E  E  E  E  E  E  E     E  E  E  E  E  E  E  E     E  E  E  E  E  E  E  E   
--------------------------|--------------------------|--------------------------|
--------------------------|--------------------------|-----------------------6--|
-----------------------2--|--2--2-----------------2--|--2--2-----------------5--|
--5--5--5--------------2--|--2--2-----------------2--|--2--2-----------------3--|
--5--5--5--0--0--0--0--0--|--0--0--0--0--0--0--0--0--|--0--0--0--0--0--0--0-----|
--3--3--3-----------------|--------------------------|--------------------------|


  Q    E  E  Q    E  E     Q    E  E  H           Q    E  E  Q    Q     
------------------------|----------------------|-----------------------|
--L----L-------------8--|--L----L--------------|--6----L----------3----|
--L----L--5--L----5--7--|--L----L--7--7--------|--5----L--5--L----2----|
--L----L--5--L----5--5--|--L----L--7--7--------|--3----L--5--L----0----|
----------3--L----3-----|----------5--5--------|----------3--L----0----|
------------------------|----------------------|-----------------------|


        pick scrapes                                                              
  Q    Q             Q     Q        Q    E  E  Q    E  E     Q    E  E  H         
---------------------------x/----|------------------------|----------------------|
--L------------------------x/----|--6----L-------------8--|--L----L--------------|
--L------------------x/----------|--5----L--5--L----5--7--|--L----L--7--7--------|
--L----x/------------x/----------|--3----L--5--L----5--5--|--L----L--7--7--------|
--L----x/------------------------|----------3--L----3-----|----------5--5--------|
---------------------------------|------------------------|----------------------|


  Q    E  E  Q    Q       W                   H.           E  E     E  E  H        E  E   
------------------0----|--L----------------|--L------------L-----|--------------------3--|
--6----L--3--L----0----|--L----------------|--L------------L-----|-----3--L--------L--3--|
--5----L--2--L----1----|--L----------------|--L------------L--2--|--L--2--L--------L--0--|
--3----L--0--L----2----|--L----------------|--L------------L--2--|--L--0--L--------L-----|
------------------2----|--L----------------|--L------------L--0--|--L--0--L--------L-----|
------------------0----|--L----------------|--L------------L-----|--------------------3--|


  E  E  H        E  E     E  E  Q    E  E  E  E     E  E  Q    E  E  E  E     E  E  H        E  E   
--L--------------------|-------------------------|-------------------------|--------------------3--|
--L--------------------|-------------------------|-------------------------|-----3--L--------L--3--|
--L--2--L--------L-----|-----5--L----L--5--L--5--|--L-------------------2--|--2--2--L--------L--0--|
-----2--L--------L--3--|--L--5--L----L--5--L--5--|--L--5--L----L--5--L--2--|--2--4--L--------L-----|
-----0--L--------L--3--|--L--3--L----L--3--L--3--|--L--5--L----L--5--L--0--|--0--0--L--------L-----|
--L-----------------1--|--L----------------------|-----3--L----L--3--L-----|--------------------3--|


  E  E  H        E  E     E  E  H        E  E     E  E  H        Q       E  E  Q    H         
--L--------------------|-----------------------|----------------------|----------------------|
--L--------------------|-----------------------|----------------------|----------------------|
--L--2--L--------L-----|-----5--L--------L-----|-----1--L-------------|--2--2--2-------------|
-----2--L--------L--3--|--L--5--L--------L--5--|--L--2--L-------------|--2--2--2-------------|
-----0--L--------L--3--|--L--3--L--------L--5--|--L--2--L-------------|--0--0--0-------------|
--L-----------------1--|--L-----------------3--|--L--0--L-------------|----------------------|


                                                                   PM PM                         
  E  E  Q    H           E  E  Q    H           E  E  Q    Q    E  S  S     E  E  Q    H         
----------------------|----------------------|---------------------------|----------------------|
--6--6--6-------------|----------------------|---------------------------|----------------------|
--5--5--5-------------|--7--7--7-------------|--2--2--2------------------|----------------------|
--3--3--3-------------|--7--7--7-------------|--2--2--2------------------|--3--3--3-------------|
--0--0--0-------------|--5--5--5-------------|--0--0--0------------0--0--|--3--3--3-------------|
----------------------|----------------------|---------------------------|--1--1--1-------------|


                                                            pick scrape       
  E  E  Q    H           E  E  Q    H           E  E  Q     Q          E  E   
----------------------|----------------------|-------------------------------|
----------------------|----------------------|-------------------------------|
----------------------|--2--2--2-------------|--2--2--2-------------------2--|
--5--5--5-------------|--2--2--2-------------|--2--2--2-------------------2--|
--5--5--5-------------|--0--0--0-------------|--0--0--0-----x\------------0--|
--3--3--3-------------|----------------------|--------------x\---------------|


           PM PM PM PM PM             PM PM PM PM                PM PM PM PM PM  
  E  E  E  E  E  E  E  E     E  E  E  E  E  E  E  E     E  E  E  E  E  E  E  E   
--------------------------|--------------------------|--------------------------|
--------------------------|--------------------------|--------------------------|
--L--2--2-----------------|--2--2--2--------------7--|--L--7--7-----------------|
--L--2--2-----------------|--3--3--3--------------7--|--L--7--7-----------------|
--L--0--0--0--0--0--0--0--|-----------0--0--0--0--5--|--L--5--5--0--0--0--0--0--|
--------------------------|--------------------------|--------------------------|


          PM PM PM PM                PM PM PM PM                PM PM PM PM     
  Q    E  E  E  E  E  E     E  E  E  E  E  E  E  E     E  E  E  E  E  E  E  E   
--5----5-----------------|--------------------------|--------------------------|
--5----5-----------------|--------------------------|--------------------------|
--2----2-----------------|--------------------------|-----------------------2--|
--2----2--------------3--|--3--3--3--------------5--|--5--5--5--------------2--|
--0----0--0--0--0--0--3--|--3--3--3--0--0--0--0--5--|--5--5--5--0--0--0--0--0--|
----------------------1--|--1--1--1--------------3--|--3--3--3-----------------|


        PM PM PM PM PM                      PM PM                               
  E  E  E  E  E  E  E  E     E  E  E  E  E  E  E  E     Q    E  E  E  E  E  E   
--------------------------|--------------------------|-------------------------|
--------------------------|-----------------------6--|--L----L--------------8--|
--L--2-----------------2--|--L--2--2--2--2--------5--|--L----L--5--L--5--5--7--|
--L--2-----------------2--|--L--2--2--2--2--------3--|--L----L--5--L--5--5--5--|
--L--0--0--0--0--0--0--0--|--L--0--0--0--0--0--0-----|----------3--L--3--3-----|
--------------------------|--------------------------|-------------------------|


                                                      pick scrapes              
  Q    E  E  H           Q    E  E  Q    Q       Q    Q            Q     Q      
----------------------|-----------------------|--------------------------x/----|
--L----L--------------|--6----L----------3----|--L-----------------------x/----|
--L----L--7--L--------|--5----L--5--L----2----|--L-----------------x/----------|
--L----L--7--L--------|--3----L--5--L----0----|--L----x/-----------x/----------|
----------5--L--------|----------3--L----0----|--L----x/-----------------------|
----------------------|-----------------------|--------------------------------|


  Q    E  E  Q    E  E     Q    E  E  E  E  Q       Q    E  E  Q    Q       H.           E  E   
------------------------|------------------------|-----------------------|---------------------|
--6----L-------------8--|--L----L----------------|--6----L--3--L---------|---------------------|
--5----L--5--L----5--7--|--L----L--7--L--7--7----|--5----L--2--L---------|------------------2--|
--3----L--5--L----5--5--|--L----L--7--L--7--7----|--3----L--0--L----2----|--L------------L--2--|
----------3--L----3-----|----------5--L--5--5----|----------0--L----2----|--L------------L--0--|
------------------------|------------------------|------------------0----|--L------------L-----|


  E  E  H        E  E     E  E  Q    Q    E  E     E  E  Q    E  E  E  E   
-----------------------|------------------------|-------------------------|
-----3--L--------L-----|------------------------|-------------------------|
--L--2--L--------L-----|-----2--L----2----L-----|-----5--L----5--5--L--5--|
--L--0--L--------L--5--|--L--2--L----2----L--3--|--L--5--L----5--5--L--5--|
--L-----------------5--|--L--0--L----0----L--3--|--L--3--L----3--3--L--3--|
--------------------3--|--L------------------1--|--L----------------------|


  E  E  Q    E  E  E  E     E  E  H        E  E     E  E  H        E  E     E  E  H        E  E   
-------------------------|--------------------3--|--L--------------------|-----------------------|
-------------------------|-----3--L--------L--3--|--L--------------------|-----------------------|
--L-------------------2--|--L--2--L--------L--0--|--L--2--L--------L-----|-----5--L--------L-----|
--L--5--L----5--5--L--2--|--L--4--L--------L-----|-----2--L--------L--3--|--L--5--L--------L--5--|
--L--5--L----5--5--L--0--|--L--0--L--------L-----|-----0--L--------L--3--|--L--3--L--------L--5--|
-----3--L----3--3--L-----|--------------------3--|--L-----------------1--|--L-----------------3--|


  E  E  H        E  E     E  E  H        E  E     H        Q    E  E     H        Q    E  E   
-----------------------|-----------------------|----------------------|----------------------|
-----------------------|-----------------------|----------------------|----------------------|
-----1--L--------L-----|--------------------9--|-------------------5--|-------------------7--|
--L--2--L--------L-----|--------------------9--|-------------------5--|-------------------7--|
--L--2--L--------L-----|-----0--L--------L--7--|-------------------3--|-------------------5--|
--L--0--L--------L--3--|--L--------------------|----------------------|----------------------|


  H        Q    E  E     H        E  E  E  E     H        Q    E  E     H        E  E  E  E   
----------------------|-----------------------|----------------------|-----------------------|
----------------------|-----------------------|----------------------|-----------------------|
-------------------9--|--------------5-----5--|-------------------7--|--------------9-----9--|
-------------------9--|--------------5-----5--|-------------------7--|--------------9-----9--|
-------------------7--|--------------3-----3--|-------------------5--|--------------7-----7--|
----------------------|-----------------------|----------------------|-----------------------|


  H        E  E  E  E     H.           E  E     E   E   Q     Q     E  E     E  E  H        E  E   
-----------------------|---------------------|----------------------------|-----------------------|
-----------------------|---------------------|-----10---L----10-----L-----|-----------------------|
--L--------L--9--L--9--|--L------------L--9--|--L---9---L-----9-----L--7--|--L--9--L--------L--5--|
--L--------L--9--L--9--|--L------------L--9--|--L---7---L-----7-----L--7--|--L--9--L--------L--5--|
--L--------L--7--L--7--|--L------------L--7--|--L----------------------5--|--L--7--L--------L--3--|
-----------------------|---------------------|----------------------------|-----------------------|


  E  E  H        E  E     E  E  H        E  E     E   E   H         E   E   
-----------------------|-----------------------|---------------------------|
-----8--L--------L--8--|--L--------------------|-----10---L---------L--10--|
--L--7--L--------L--7--|--L--7--L--------L--9--|--L---9---L---------L---9--|
--L--5--L--------L--5--|--L--7--L--------L--9--|--L---7---L---------L---7--|
--L--------------------|-----5--L--------L--7--|--L------------------------|
-----------------------|-----------------------|---------------------------|


                                                                     W                             
   E  E  H        E  E     E  E  H        E  E     E  E  H        E  E     E  E  E  E  E  E  Q     
------------------------|-----3--L--------L-----|-----------------------|-------------------------|
---L--------------------|-----3--L--------L-----|-----------------------|-------------------------|
---L--9--L--------L--5--|--5--0--L--------L--7--|--L--4--L--------L--4--|--L--2-------------------|
---L--9--L--------L--5--|--5--0--L--------L--7--|--L--4--L--------L-----|--------4--3--2----------|
------7--L--------L--3--|--3-----------------5--|--L--2--L--------L-----|-----------------5--2----|
------------------------|-----3--L--------L-----|-----------------------|-------------------------|


           PM PM PM PM PM             PM PM PM PM PM             PM PM PM PM PM  
  E  E  E  E  E  E  E  E     E  E  E  E  E  E  E  E     E  E  E  E  E  E  E  E   
--------------------------|--------------------------|--------------------------|
--------------------------|--------------------------|--------------------------|
--2--2--2-----------------|--2--2--2-----------------|--7--7--7-----------------|
--2--2--2-----------------|--3--3--3-----------------|--7--7--7-----------------|
--0--0--0--0--0--0--0--0--|-----------0--0--0--0--0--|--5--5--5--0--0--0--0--0--|
--------------------------|--------------------------|--------------------------|


           PM PM PM PM PM             PM PM PM PM PM             PM PM PM PM     
  E  E  E  E  E  E  E  E     E  E  E  E  E  E  E  E     E  E  E  E  E  E  E  E   
--------------------------|--------------------------|--------------------------|
--------------------------|--------------------------|--------------------------|
--2--2--2-----------------|--------------------------|-----------------------2--|
--2--2--2-----------------|--3--3--3-----------------|--5--5--5--------------2--|
--0--0--0--0--0--0--0--0--|--3--3--3--0--0--0--0--0--|--5--5--5--0--0--0--0--0--|
--------------------------|--1--1--1-----------------|--3--3--3-----------------|


           PM PM PM PM PM                   PM PM                PM PM PM PM PM  
  E  E  E  E  E  E  E  E     E  E  E  E  E  E  E  E     E  E  E  E  E  E  E  E   
--------------------------|--------------------------|--------------------------|
--------------------------|--------------------------|--------------------------|
--2--2--2-----------------|--2--2--2--2--2--------2--|--L--2--2-----------------|
--2--2--2-----------------|--2--2--2--2--2--------2--|--L--2--2-----------------|
--0--0--0--0--0--0--0--0--|--0--0--0--0--0--0--0--0--|--L--0--0--0--0--0--0--0--|
--------------------------|--------------------------|--------------------------|


           PM PM PM PM                PM PM PM PM               PM PM PM PM     
  E  E  E  E  E  E  E  E     E  E  E  E  E  E  E  E     Q    E  E  E  E  E  E   
--------------------------|--------------------------|-------5-----------------|
--------------------------|--------------------------|-------5-----------------|
--2--2--2--------------7--|--7--7--7-----------------|--2----2-----------------|
--3--3--3--------------7--|--7--7--7--------------2--|--2----2--------------3--|
-----------0--0--0--0--5--|--5--5--5--0--0--0--0--0--|--0----0--0--0--0--0--3--|
--------------------------|--------------------------|----------------------1--|


  PM PM PM PM PM PM PM PM    PM PM PM PM PM PM PM PM                          
  E  E  E  E  E  E  E  E     E  E  E  E  E  E  E  E     E  E  H        E  E   
--------------------------|--------------------------|-----------------------|
--------------------------|--------------------------|-----3--L--------L-----|
--------------------------|-----------------------2--|--2--2--L--------L-----|
--3--3--3--3--3--3--3--3--|--5--5--5--5--5--5--5--2--|--2--0--L--------L--5--|
--3--3--3--3--3--3--3--3--|--5--5--5--5--5--5--5--0--|--0-----------------5--|
--1--1--1--1--1--1--1--1--|--3--3--3--3--3--3--3-----|--------------------3--|


  E  E  H        E  E     E  E  H        E  E     E  E  Q    E  E  E  E     E  E  H        E  E   
-----------------------|-----------------------|-------------------------|--------------------3--|
-----------------------|-----------------------|-------------------------|-----3--L--------L--3--|
-----2--L--------L-----|-----5--L--------L--5--|--L-------------------2--|--L--2--L--------L--0--|
--L--2--L--------L--3--|--L--5--L--------L--5--|--L--5--L----5--5--L--2--|--L--4--L--------L-----|
--L--0--L--------L--3--|--L--3--L--------L--3--|--L--5--L----5--5--L--0--|--L--0--L--------L-----|
--L-----------------1--|--L--------------------|-----3--L----3--3--L-----|--------------------3--|


  E  E  H        E  E     E  E  H        E  E     E  E  H        E  E     E  E  H        E  E   
--L--------------------|-----------------------|-----------------------|--------------------3--|
--L--2--L--------L-----|-----------------------|-----------------------|-----3--L--------L--3--|
--L--2--L--------L-----|-----5--L--------L-----|--------------------2--|--2--2--L--------L--0--|
-----2--L--------L--3--|--L--5--L--------L--5--|--L--2--L--------L--2--|--2--4--L--------L-----|
-----0--L--------L--3--|--L--3--L--------L--5--|--L--2--L--------L--0--|--0--0--L--------L-----|
--L-----------------1--|--L-----------------3--|--L--0--L--------L-----|--------------------3--|


  E  E  H        E  E     E  E  H        E  E     E  E  Q      E  E  E   E   
--L--------------------|-----------------------|----------------------------|
--L--------------------|-----------------------|---------------------0------|
--L--2--L--------L-----|-----5--L--------L--5--|--L------------------0--14--|
-----2--L--------L--3--|--L--5--L--------L--5--|--L--5--L---------9--0------|
-----0--L--------L--3--|--L--3--L--------L--3--|--L--5--L----/12------------|
--L-----------------1--|--L--------------------|-----3--L-------------------|


   E   E   E   E   E   E   E   E      E   E   E   E   E   E   E   E   
----------------------------------|----------------------------------|
----------------------------------|----------------------------------|
--14--14--14--14--14--14--14--14--|--14--14--14--14--14--14--14--14--|
----------------------------------|----------------------------------|
----------------------------------|----------------------------------|
----------------------------------|----------------------------------|


                                                          feedback                                  
   E   E   E   E   Q     E  E     E  E  H.                W                      W                  
-------------------------------|---------------------|--(12)----------------|--(16)----------------|
----------------------------3--|--L------------------|----------------------|----------------------|
---L--14--14--14--14\-------0--|--L--2--L------------|----L-----------------|----L-----------------|
----------------------------0--|--L--2--L------------|----L-----------------|----L-----------------|
-------------------------------|-----0--L------------|----L-----------------|----L-----------------|
----------------------------3--|--L------------------|----------------------|----------------------|


  Q    Q    H          
---------------------||
---------------------||
--2------------------||
--2------------------||
--0------------------||
---------------------||




Duration Legend
---------------
W - whole
H - half
Q - quarter
E - 8th
S - 16th
T - 32nd
X - 64th
. - note dotted
|-n-|  - n-tuplets


Tablature Legend
----------------
L - tied note
x - dead note
g - grace note
(n) - ghost note
> - accentuded note
NH - natural harmonic
AH - artificial harmonic
TH - tapped harmonic
SH - semi harmonic
PH - pitch harmonic
h - hammer on
p - pull off
b - bend
br - bendRelease
pb - preBend
pbr - preBendRelease
brb - bendReleaseBend
\n/ - tremolo bar dip
\n - tremolo bar dive
-/n - tremolo bar Release up
/n\ - tremolo bar inverted dip
/n - tremolo bar return
-\n - tremolo bar Release down
S - shift slide
s - legato slide
/ -  slide into from below or out of upwards
\ -  slide into from above or out of downwards
~ - vibrato
W - wide vibrato
tr - trill
TP - tremolo picking
T - tapping
S - slap
P - pop
< - fade in
^ - brush up
v - brush down
Добавлено: 20.07.2012
Другие материалы по этой песне:

Страница создана 04.06.2012
http://primanota.ru/black-n-blue/hold-on-to-18-chords.htm
Привет, Гость.
Предлагаем пройти революционный курс по гитаре.
Подарок от PrimaNota.Ru, забирай!